» » »

Dark Tranquility, Damage Done Tabs (ver.1)

Artists:  A B C D E F G H I J K L M N O P Q R S T U V W X Y Z # 

Damage Done Tabs (ver.1)

Dark Tranquility Tabs
Rating:
0/5 (0 votes)
Damage Done lessons Tabs too difficult? Try these video lessons and learn fast
                Tune down to D
. = palm mute
h = hammer
p = pick
/ = forward slide
\ = backward slide
~ = pull string up (plectrum with thumb)

Riff A
d|---------------------------------------------------------|
A|---------------------------------------------------------|
F|---------------------------------------------------------|
C|---------------------------------------------------------|
G|-----8-----7-----8p7-5\3/5~----------8----7-----5-7------|
D|-5-5----5-----5---------------5-5-5-----5---5---3-5------|
   . .    .     .               . . .     .   .

Riff B
d|---------------------------------------------------------|
A|---------------------------------------------------------|
F|---------------------------------------------------------|
C|---------------------------------------------------------|
G|-----8---7-----8p7-5\3/5~---------8---7----5-3-5-7-------|
D|-5-5---5----5---------------5-5-5---5---5--3-1-3-5-------|
   . .   .    .               . . .   .   .

Riff C
d|---------------------------------------------------------|
A|---------------------------------------------------------|
F|---------------------------------------------------------|
C|---------------------------------------------------------|
G|-10--8-7----------------------8-7------------------------|
D|--8--6-5---6-6-6-6--8-8-8-8---6-5------------------------|
             . . . .  . . . .

Riff A
d|---------------------------------------------------------|
A|---------------------------------------------------------|
F|---------------------------------------------------------|
C|---------------------------------------------------------|
G|-----8-----7-----8p7-5\3/5~----------8----7-----5-7------|
D|-5-5----5-----5---------------5-5-5-----5---5---3-5------|
   . .    .     .               . . .     .   .

Riff B
d|---------------------------------------------------------|
A|---------------------------------------------------------|
F|---------------------------------------------------------|
C|---------------------------------------------------------|
G|-----8---7-----8p7-5\3/5~---------8---7----5-3-5-7-------|
D|-5-5---5----5---------------5-5-5---5---5--3-1-3-5-------|
   . .   .    .               . . .   .   .

Riff C
d|---------------------------------------------------------|
A|---------------------------------------------------------|
F|---------------------------------------------------------|
C|---------------------------------------------------------|
G|-10--8-7----------------------8-7------------------------|
D|--8--6-5---6-6-6-6--8-8-8-8---6-5------------------------|
             . . . .  . . . .

Riff D
d|---------------------------------------------------------|
A|---------------------------------------------------------|
F|---------------------------------------------------------|
C|---------------------------------------------------------|
G|-5-7h8--7-5--7h87h8-----5-7h8--7-5-----------------------|
D|------------------------------------6-5------------------|

d|---------------------------------------------------------|
A|---------------------------------------------------------|
F|---------------------------------------------------------|
C|---------------------------------------------------------|
G|-5-7h8--7-5--7h87h8-----5-7h8--7-5----------10--8--------|
D|-----------------------------------6-6-6-6---8--6--------|
                                     . . . .
Riff E
d|---------------------------------------------------------|
A|---------------------------------------------------------|
F|---------------------------------------------------------|
C|---------------------------------------------------------|
G|-7-7-7-7---7-7-7---7-7---7-7-7---------------------------|
D|-5-5-5-5---5-5-5---5-5---5-5-5---------------------------|
   . . . .   . . .   . .   . . .

d|---------------------------------------------------------|
A|---------------------------------------------------------|
F|---------------------------------------------------------|
C|---------------------------------------------------------|
G|-7-7-7-7---7-7-7---7-7---7-7-7---------------------------|
D|-5-5-5-5---5-5-5---5-5---5-5-5---------------------------|
   . . . .   . . .   . .   . . .

d|---------------------------------------------------------|
A|---------------------------------------------------------|
F|---------------------------------------------------------|
C|---------------------------------------------------------|
G|-8--5--7---------8--5--7---8-5-7-------------------------|
D|-6--3--5--5-5-5--6--3--5---6-3-5-5-----------------------|
            . . .                  .

Riff A
d|---------------------------------------------------------|
A|---------------------------------------------------------|
F|---------------------------------------------------------|
C|---------------------------------------------------------|
G|-----8-----7-----8p7-5\3/5~----------8----7-----5-7------|
D|-5-5----5-----5---------------5-5-5-----5---5---3-5------|
   . .    .     .               . . .     .   .

Riff B
d|---------------------------------------------------------|
A|---------------------------------------------------------|
F|---------------------------------------------------------|
C|---------------------------------------------------------|
G|-----8---7-----8p7-5\3/5~---------8---7----5-3-5-7-------|
D|-5-5---5----5---------------5-5-5---5---5--3-1-3-5-------|
   . .   .    .               . . .   .   .

Riff C
d|---------------------------------------------------------|
A|---------------------------------------------------------|
F|---------------------------------------------------------|
C|---------------------------------------------------------|
G|-10--8-7----------------------8-7------------------------|
D|--8--6-5---6-6-6-6--8-8-8-8---6-5------------------------|
             . . . .  . . . .

Riff F
d|---------------------------------------------------------|
A|---------------------------------------------------------|
F|---------------------------------------------------------|
C|---------------------------------------------------------|
G|-7-------7-7-------7-5-8-------8-8-------8-8-7-8-10-8----|
D|-5-5-5-5-5-5-5-5-5-5-3-6-6-6-6-6-6-6-6-6-6-6-5-6--8-6----|
     . . .     . . .       . . .     . . .

d|---------------------------------------------------------|
A|---------------------------------------------------------|
F|---------------------------------------------------------|
C|---------------------------------------------------------|
G|-7-------7-7-------7-5-8-------8-8-------8-8-7-8-10-8----|
D|-5-5-5-5-5-5-5-5-5-5-3-6-6-6-6-6-6-6-6-6-6-6-5-6--8-6----|
     . . .     . . .       . . .     . . .

Riff G (solo)
d|---------------------------------------------------------|
A|---------------------------------------------------------|
F|-10-9--7h9-10--7h9-10-9-10--7h9--7h9---------------------|
C|---------------------------------------------------------|
G|---------------------------------------------------------|
D|---------------------------------------------------------|

d|---------------------------------------------------------|
A|---------------------------------------------------------|
F|-10-9--7h9-10--7h9-10-9-10--7h9--7h9---------------------|
C|---------------------------------------------------------|
G|---------------------------------------------------------|
D|---------------------------------------------------------|

d|---------------------------------------------------------|
A|---------------------------------------------------------|
F|-10-9--7h9-10--7h9-10-9-10--7h9--7h9---------------------|
C|---------------------------------------------------------|
G|---------------------------------------------------------|
D|---------------------------------------------------------|

d|---------------------------------------------------------|
A|---------------------------------------------------------|
F|-10-9--7h9-10--7h9-10-9-10--7h9--7h9---------------------|
C|---------------------------------------------------------|
G|---------------------------------------------------------|
D|---------------------------------------------------------|

Riff A
d|---------------------------------------------------------|
A|---------------------------------------------------------|
F|---------------------------------------------------------|
C|---------------------------------------------------------|
G|-----8-----7-----8p7-5\3/5~----------8----7-----5-7------|
D|-5-5----5-----5---------------5-5-5-----5---5---3-5------|
   . .    .     .               . . .     .   .

Riff E
d|---------------------------------------------------------|
A|---------------------------------------------------------|
F|---------------------------------------------------------|
C|---------------------------------------------------------|
G|-7-7-7-7---7-7-7---7-7---7-7-7---------------------------|
D|-5-5-5-5---5-5-5---5-5---5-5-5---------------------------|
   . . . .   . . .   . .   . . .

d|---------------------------------------------------------|
A|---------------------------------------------------------|
F|---------------------------------------------------------|
C|---------------------------------------------------------|
G|-7-7-7-7---7-7-7---7-7---7-7-7---------------------------|
D|-5-5-5-5---5-5-5---5-5---5-5-5---------------------------|
   . . . .   . . .   . .   . . .

d|---------------------------------------------------------|
A|---------------------------------------------------------|
F|---------------------------------------------------------|
C|---------------------------------------------------------|
G|-8--5--7---------8--5--7---8-5-7-------------------------|
D|-6--3--5--5-5-5--6--3--5---6-3-5-5-----------------------|
            . . .                  .
Riff H
d|---------------------------------------------------------|
A|---------------------------------------------------------|
F|---------------------------------------------------------|
C|---------------------------------------------------------|
G|-10--8--7--5---------------------------------------------|
D|--8--6--5--3---------------------------------------------|

Riff E
d|---------------------------------------------------------|
A|---------------------------------------------------------|
F|---------------------------------------------------------|
C|---------------------------------------------------------|
G|-7-7-7-7---7-7-7---7-7---7-7-7---------------------------|
D|-5-5-5-5---5-5-5---5-5---5-5-5---------------------------|
   . . . .   . . .   . .   . . .

d|---------------------------------------------------------|
A|---------------------------------------------------------|
F|---------------------------------------------------------|
C|---------------------------------------------------------|
G|-7-7-7-7---7-7-7---7-7---7-7-7---------------------------|
D|-5-5-5-5---5-5-5---5-5---5-5-5---------------------------|
   . . . .   . . .   . .   . . .

d|---------------------------------------------------------|
A|---------------------------------------------------------|
F|---------------------------------------------------------|
C|---------------------------------------------------------|
G|-8--5--7---------8--5--7---8-5-7-------------------------|
D|-6--3--5--5-5-5--6--3--5---6-3-5-5-----------------------|
            . . .                  .
Riff A
d|---------------------------------------------------------|
A|---------------------------------------------------------|
F|---------------------------------------------------------|
C|---------------------------------------------------------|
G|-----8-----7-----8p7-5\3/5~----------8----7-----5-7------|
D|-5-5----5-----5---------------5-5-5-----5---5---3-5------|
   . .    .     .               . . .     .   .

Riff B
d|---------------------------------------------------------|
A|---------------------------------------------------------|
F|---------------------------------------------------------|
C|---------------------------------------------------------|
G|-----8---7-----8p7-5\3/5~---------8---7----5-3-5-7-------|
D|-5-5---5----5---------------5-5-5---5---5--3-1-3-5-------|
   . .   .    .               . . .   .   .

Riff C
d|---------------------------------------------------------|
A|---------------------------------------------------------|
F|---------------------------------------------------------|
C|---------------------------------------------------------|
G|-10--8-7----------------------8-7------------------------|
D|--8--6-5---6-6-6-6--8-8-8-8---6-5------------------------|
             . . . .  . . . .

Riff D
d|---------------------------------------------------------|
A|---------------------------------------------------------|
F|---------------------------------------------------------|
C|---------------------------------------------------------|
G|-5-7h8--7-5--7h87h8-----5-7h8--7-5-----------------------|
D|------------------------------------6-5------------------|

d|---------------------------------------------------------|
A|---------------------------------------------------------|
F|---------------------------------------------------------|
C|---------------------------------------------------------|
G|-5-7h8--7-5--7h87h8-----5-7h8--7-5----------10--8--------|
D|-----------------------------------6-6-6-6---8--6--------|
                                     . . . .

Riff G (solo) (till end of song, will come in next version)
d|---------------------------------------------------------|
A|---------------------------------------------------------|
F|-10-9--7h9-10--7h9-10-9-10--7h9--7h9---------------------|
C|---------------------------------------------------------|
G|---------------------------------------------------------|
D|---------------------------------------------------------|

d|---------------------------------------------------------|
A|---------------------------------------------------------|
F|-10-9--7h9-10--7h9-10-9-10--7h9--7h9---------------------|
C|---------------------------------------------------------|
G|---------------------------------------------------------|
D|---------------------------------------------------------|

d|---------------------------------------------------------|
A|---------------------------------------------------------|
F|-10-9--7h9-10--7h9-10-9-10--7h9--7h9---------------------|
C|---------------------------------------------------------|
G|---------------------------------------------------------|
D|---------------------------------------------------------|

d|---------------------------------------------------------|
A|---------------------------------------------------------|
F|-10-9--7h9-10--7h9-10-9-10--7h9--7h9---------------------|
C|---------------------------------------------------------|
G|---------------------------------------------------------|
D|---------------------------------------------------------|

Riff H
d|---------------------------------------------------------|
A|---------------------------------------------------------|
F|---------------------------------------------------------|
C|---------------------------------------------------------|
G|-10--8--7--5---------------------------------------------|
D|--8--6--5--3---------------------------------------------|
            

comments powered by Disqus
↑ Back to top | Dark Tranquility Tabs for Damage Done. Lyrics for acoustic guitar and electric guitar. Tablatures and chords are parodies/interpretations of the original songs. You may use it for private study, scholarship, research or language learning purposes only