» » »

Dark Throne, Natassja In Eternal Sleep Bass tabs (ver.1)

Artists:  A B C D E F G H I J K L M N O P Q R S T U V W X Y Z # 

Natassja In Eternal Sleep Bass tabs (ver.1)

Dark Throne Tabs
 Rating:
4/5 (4 votes)
Natassja In Eternal Sleep lessons Tabs too difficult? Try these video lessons and learn fast
                G||---------------------------|--------------------------|
D||*--------------------------|--------------------------|
A||*--------------------------|--------------------------|
E||---7-7-7-7-7-7-7-7-7-7-7-7-|--7-7-7-7-7-7-7-7-7-7-7-7-|


                                                      
--------------------------|--------------------------|
--------------------------|--------------------------|
--------------------------|--------------------------|
--7-7-7-7-7-7-7-7-7-7-7-7-|--7-7-7-7-7-7-7-7-7-7-7-7-|


                                                      
--------------------------|--------------------------|
--------------------------|--------------------------|
--------------------------|--------------------------|
--7-7-7-7-7-7-7-7-7-7-7-7-|--7-7-7-7-7-7-7-7-7-7-7-7-|


                                                      
--------------------------|--------------------------|
--------------------------|--------------------------|
--------------------------|--------------------------|
--7-7-7-7-7-7-7-7-7-7-7-7-|--7-7-7-7-7-7-7-7-7-7-7-7-|


                                                                              
--------------------------------------|--------------------------------------|
--------------------------------------|--------------------------------------|
--------------------------------------|--------------------------------------|
--10-10-10-10-10-10-10-10-10-10-10-10-|--10-10-10-10-10-10-10-10-10-10-10-10-|


                                                                              
--------------------------------------|--------------------------------------|
--------------------------------------|--------------------------------------|
--------------------------------------|--------------------------------------|
--10-10-10-10-10-10-10-10-10-10-10-10-|--10-10-10-10-10-10-10-10-10-10-10-10-|


                                                                              
--------------------------------------|--------------------------------------|
--------------------------------------|--------------------------------------|
--------------------------------------|--------------------------------------|
--10-10-10-10-10-10-10-10-10-10-10-10-|--10-10-10-10-10-10-10-10-10-10-10-10-|


                                                                              
--------------------------------------|--------------------------------------|
--------------------------------------|--------------------------------------|
--------------------------------------|--------------------------------------|
--10-10-10-10-10-10-10-10-10-10-10-10-|--10-10-10-10-10-10-10-10-10-10-10-10-|


                                                      
--------------------------|--------------------------|
--------------------------|--------------------------|
--8-8-8-8-8-8-8-8-8-8-8-8-|--8-8-8-8-8-8-8-8-8-8-8-8-|
--------------------------|--------------------------|


                                                        
--------------------------|---------------------------||
--------------------------|--------------------------*||
--8-8-8-8-8-8-8-8-8-8-8-8-|--8-8-8-8-8-8-8-8-8-8-8-8-*||
--------------------------|---------------------------||


                                                                       
-----------------------------------|----------------------------------|
*----------------------------------|----------------------------------|
*----------------------------------|----------------------------------|
---6-6-6-6-6-6-6-6-6-6-6-6-6-6-6-6-|--6-6-6-6-6-6-6-6-6-6-6-6-6-6-6-6-|


                                                                      
----------------------------------|----------------------------------|
----------------------------------|----------------------------------|
----------------------------------|----------------------------------|
--4-4-4-4-4-4-4-4-4-4-4-4-4-4-4-4-|--3-3-3-3-3-3-3-3-3-3-3-3-3-3-3-3-|


                                                                      
----------------------------------|----------------------------------|
----------------------------------|----------------------------------|
----------------------------------|----------------------------------|
--6-6-6-6-6-6-6-6-6-6-6-6-6-6-6-6-|--6-6-6-6-6-6-6-6-6-6-6-6-6-6-6-6-|


                                                                      
----------------------------------|----------------------------------|
----------------------------------|----------------------------------|
----------------------------------|----------------------------------|
--4-4-4-4-4-4-4-4-4-4-4-4-4-4-4-4-|--3-3-3-3-3-3-3-3-3-3-3-3-3-3-3-3-|


                                                                      
----------------------------------|----------------------------------|
----------------------------------|----------------------------------|
----------------------------------|----------------------------------|
--2-2-2-2-2-2-2-2-2-2-2-2-2-2-2-2-|--1-1-1-1-1-1-1-1-1-1-1-1-1-1-1-1-|


                                                                         
-----------------------------------||-----------------------------------|
----------------------------------*||*----------------------------------|
----------------------------------*||*----------------------------------|
--1-1-1-1-1-1-1-1-1-1-1-1-1-1-1-1--||---0-0-0-0-0-0-0-0-0-0-0-0-0-0-0-0-|


                                                                      
----------------------------------|----------------------------------|
----------------------------------|----------------------------------|
------------------5-5-5-5---------|--------------------------2-2-2-2-|
--0-0-0-0-3-3-3-3---------4-4-4-4-|--0-0-0-0-0-0-0-0-0-0-0-0---------|


                                                                      
----------------------------------|----------------------------------|
----------------------------------|----------------------------------|
----------------------------------|----------------------------------|
--3-3-3-3-3-3-3-3-3-3-3-3-3-3-3-3-|--0-0-0-0-0-0-0-0-0-0-0-0-0-0-0-0-|


                                                                      
----------------------------------|----------------------------------|
----------------------------------|----------------------------------|
----------5-5-5-5-----------------|--------------------------2-2-2-2-|
--0-0-0-0---------3-3-3-3-4-4-4-4-|--0-0-0-0-0-0-0-0-0-0-0-0---------|


                                                                         
-----------------------------------||-----------------------------------|
----------------------------------*||*----------------------------------|
----------------------------------*||*----------------------------------|
--3-3-3-3-3-3-3-3-3-3-3-3-3-3-3-3--||---6-6-6-6-6-6-6-6-6-6-6-6-6-6-6-6-|


                                                                      
----------------------------------|----------------------------------|
----------------------------------|----------------------------------|
----------------------------------|----------------------------------|
--6-6-6-6-6-6-6-6-6-6-6-6-6-6-6-6-|--4-4-4-4-4-4-4-4-4-4-4-4-4-4-4-4-|


                                                                      
----------------------------------|----------------------------------|
----------------------------------|----------------------------------|
----------------------------------|----------------------------------|
--3-3-3-3-3-3-3-3-3-3-3-3-3-3-3-3-|--6-6-6-6-6-6-6-6-6-6-6-6-6-6-6-6-|


                                                                      
----------------------------------|----------------------------------|
----------------------------------|----------------------------------|
----------------------------------|----------------------------------|
--6-6-6-6-6-6-6-6-6-6-6-6-6-6-6-6-|--4-4-4-4-4-4-4-4-4-4-4-4-4-4-4-4-|


                                                                      
----------------------------------|----------------------------------|
----------------------------------|----------------------------------|
----------------------------------|----------------------------------|
--3-3-3-3-3-3-3-3-3-3-3-3-3-3-3-3-|--2-2-2-2-2-2-2-2-2-2-2-2-2-2-2-2-|


                                                                        
----------------------------------|-----------------------------------||
----------------------------------|----------------------------------*||
----------------------------------|----------------------------------*||
--1-1-1-1-1-1-1-1-1-1-1-1-1-1-1-1-|--1-1-1-1-1-1-1-1-1-1-1-1-1-1-1-1--||


                                                       
---------------------------|--------------------------|
*--------------------------|--------------------------|
*--------------------------|--------------------------|
---7-7-7-7-7-7-7-7-7-7-7-7-|--7-7-7-7-7-7-7-7-7-7-7-7-|


                                                      
--------------------------|--------------------------|
--------------------------|--------------------------|
--------------------------|--------------------------|
--7-7-7-7-7-7-7-7-7-7-7-7-|--7-7-7-7-7-7-7-7-7-7-7-7-|


                                                      
--------------------------|--------------------------|
--------------------------|--------------------------|
--------------------------|--------------------------|
--7-7-7-7-7-7-7-7-7-7-7-7-|--7-7-7-7-7-7-7-7-7-7-7-7-|


                                                      
--------------------------|--------------------------|
--------------------------|--------------------------|
--------------------------|--------------------------|
--7-7-7-7-7-7-7-7-7-7-7-7-|--7-7-7-7-7-7-7-7-7-7-7-7-|


                                                                              
--------------------------------------|--------------------------------------|
--------------------------------------|--------------------------------------|
--------------------------------------|--------------------------------------|
--10-10-10-10-10-10-10-10-10-10-10-10-|--10-10-10-10-10-10-10-10-10-10-10-10-|


                                                                              
--------------------------------------|--------------------------------------|
--------------------------------------|--------------------------------------|
--------------------------------------|--------------------------------------|
--10-10-10-10-10-10-10-10-10-10-10-10-|--10-10-10-10-10-10-10-10-10-10-10-10-|


                                                                              
--------------------------------------|--------------------------------------|
--------------------------------------|--------------------------------------|
--------------------------------------|--------------------------------------|
--10-10-10-10-10-10-10-10-10-10-10-10-|--10-10-10-10-10-10-10-10-10-10-10-10-|


                                                                              
--------------------------------------|--------------------------------------|
--------------------------------------|--------------------------------------|
--------------------------------------|--------------------------------------|
--10-10-10-10-10-10-10-10-10-10-10-10-|--10-10-10-10-10-10-10-10-10-10-10-10-|


                                                      
--------------------------|--------------------------|
--------------------------|--------------------------|
--8-8-8-8-8-8-8-8-8-8-8-8-|--8-8-8-8-8-8-8-8-8-8-8-8-|
--------------------------|--------------------------|


                                                                
--------------------------|---------------------------||------||
--------------------------|--------------------------*||------||
--8-8-8-8-8-8-8-8-8-8-8-8-|--8-8-8-8-8-8-8-8-8-8-8-8-*||------||
--------------------------|---------------------------||------||
            
Submit corrections

comments powered by Disqus
↑ Back to top | Dark Throne Bass for Natassja In Eternal Sleep. Lyrics for acoustic guitar and electric guitar. Tablatures and chords are parodies/interpretations of the original songs. You may use it for private study, scholarship, research or language learning purposes only