» » »

Lifeless Tabs (ver.1)

Artists:  A B C D E F G H I J K L M N O P Q R S T U V W X Y Z # 

Lifeless Tabs (ver.1)

Dark Throne
Rating:
0/5 (0 votes)

Hard to play? Try these video lessons and learn fast.
                DARKTHRONE "LIFELESS"

A.H. = ARTIFICIAL HARMONIC
~ = VIBRATO
1/4
 ^ = BEND A QUARTER STEP


		  _____   ____
RIFF A:		 |1.	 |2.
|----------------------| -------|
|----------------------| -------|
|----5-4-444-3-4-7-777-| -5-555-|
|----3-2-222-1-2-5-555-| -3-333-|
|3---------------------| -------|
|1---------------------| -------|
			PLAY A TOTAL OF 6X

RIFF B:

|------------------------------------------|
|------------------------------------------|
|----------------A.H.-----------------A.H.-|
|-----------------~------------------------|
|5---8-7-777-7-7--8---5---8-7-777-7-7--~---|
|3---6-5-555-5-5------3---6-5-555-5-5--8---|
			PLAY A TOTAL OF 2X

PLAY RIFF A A TOTAL OF 4X
PLAY RIFF B A TOTAL OF 2X (play the firt three chords again and end the riff)

TEMPO SLOWS DOWN.

RIFF C:
|--------------------------------------------
|---------------------------------------1/4--
|----------------------------------------^---
|----------------------------------------9---
|7--7--7--7--7-----~---7--7--7--7--7--7--7---
|5--5--5--5--5--3--4---5--5--5--5--5--5------


 --------------------------------------------|
 --------------------------------------------|
 -----------------A.H.-----------------------|
 -----------------1/4------------------------|
 7--7--7--7--7--7--^----7--7--7--7--7--3--3--|
 5--5--5--5--5--5--4----5--5--5--5--5--1--1--|
				(END RIFF C)
			PLAY A TOTAL OF 4X

RIFF E:		 __________________   ___________________
		|1		     |2.
|----------------------------------| |-------------------
|----------------------------------| |-------------------
|----------------------------------| |-------------------
|---------------7------------------| |4------------------
|2--2--2--2--2--5-2-3--3--3--3--3--| |2-2-3--3--3--3--3--
|0--0--0--0--0----0-1--1--1--1--1--| |--0-1--1--1--1--1--
					PLAY A TOTAL 4X

PLAY RIFF C A TOTAL OF 4X
PLAY RIFF E A TOTAL OF 4X (end on an open e chord)


TEMPO INCREASES

RIFF F:

|----------------------------------------------------------------|
|----------------------------------------------------------------|
|----------------------------------------------------------------|
|------------------------------------------------------------5555|
|--------55557777------------------------77775555----------------|
|00000000--------000000000033333300000000--------000000003333----|
						PLAY TOTAL OF 9X

THE END.
            
Hard to play? Try these video lessons and learn fast. | Correct




comments powered by Disqus
↑ Back to top | Tablatures and chords are parodies/interpretations of the original songs. You may use it for private study, scholarship, research or language learning purposes only