» » »

I En Hall Med Flesk Og Mjod Tabs (ver.1)

Artists:  A B C D E F G H I J K L M N O P Q R S T U V W X Y Z # 

I En Hall Med Flesk Og Mjod Tabs (ver.1)

Dark Throne
Rating:
0/5 (0 votes)

Hard to play? Try these video lessons and learn fast.
                #------------------------------------PLEASE  NOTE------------------------------------------------#

G: Darkthrone - I en hall med flesk og mjod



Band   Darkthrone 



. - palm mute / - slide up to
 - slide down to ~ - vibrato
h - hammer on p - pull off
, - slight palm mute () - ghost note, sustained note
" " tremolo note <> - Trill

Suffixes for bend
f - full bend h - half bend
ph - pinched harmonic q - quarter bend
t - tap bend * - see comment
^ - Hold bend r - release bend
x – Staccato ~ - vibrato bend

Tuning E A D G B E


Riff 1
|-----------------------------------|
|-----------------------------------| 
|-----------------------------------| 
|---5555555---888888---6665555------|  
|---5555555---888888---6665555------|
|---3333333---666666---4444444------|

Riff 2
|----------------------------------------|
|----------------------------------------| 
|----------------------------------------| 
|----------------------------------------|  
|---4-4-4-4--6--4-4-4-4--2-2-2-2--3-3-3--|
|---2-2-2-2--4--2-2-2-2--0-0-0-0--1-1-1--|

Play Riff 1 x 4

Play Riff 2 x 6

Riff 3  
|----------------------------------------|------------------------------------|
|----------------------------------------|------------------------------------|  
|-----------777777---666666--------------|--66666666---555555555--------------| 
|--777777---777777---666666----7777777---|--66666666---555555555---66666------|  
|--777777---555555---444444----7777777---|--44444444---333333333---66666------|
|--555555----------------------5555555---|-------------------------44444------|

Play Riff 1 x 4

Riff 4  End!
|-----------------------|
|-----------------------| 
|-----------------------| 
|----5------------------|  
|----5------------------|
|----3------------------|
            
Hard to play? Try these video lessons and learn fast. | Correct




comments powered by Disqus
↑ Back to top | Tablatures and chords are parodies/interpretations of the original songs. You may use it for private study, scholarship, research or language learning purposes only