» » »

Dark Throne, Hate Is The Law Tabs (ver.1)

Artists:  A B C D E F G H I J K L M N O P Q R S T U V W X Y Z # 

Hate Is The Law Tabs (ver.1)

Dark Throne Tabs
 Rating:
4/5 (4 votes)
Hate Is The Law lessons Tabs too difficult? Try these video lessons and learn fast
                .  - palm mute           /  - slide up to
\  - slide down to       ~  - vibrato
h  - hammer on           b  - Bend
p  - pull off            Suffixes for bend
t  - tap                 f  - full bend    h - half bend
ph - pinched harmonic    q  - quarter bend t - tap bend
*  - see comment         ^  - Hold bend    r release bend
x  - Stuccatto           ~  - vibrato bend
,  - slight palm mute    () - ghost note, sustained note
"  - tremolo note         - Trill

Tuning D (DGCFAd)

Riff 1  (play 4 times)
|----------------------------------------------------------------|
|----------------------------------------------------------------|
|----------------------------------------------------------------|
|----------------------------------------------------------------|
|-7"--------------------------------------------------6"----3"---|
|-5"--------------------------------------------------4"----1"---|

Riff 2  (play 4 times) I'm not sure this riff!
|-----------------------------|
|-----------------------------|
|-----------------------------|
|-10-9-9-8-8-7-7--------------|
|-8--7-7-6-6-5-5-7------2-----|
|----------------5-1-4---4-3b-|

Riff 1 x 4
Riff 2 x 4

Riff 3  (play 9 times)
|---------------------------------------------------------------------------|
|---------------------------------------------------------------------------|
|---------------------------------------------------------------------------|
|---------------------------------------8----------------------7-8-7-8-7-8--|
|-7---7--7-7-7-7-7-10--7---7--7-7-7-7-7-6--7---7--7-7-7-7-7-10-5-6-5-6-5-6--|
|-5---5--5-5-5-5-5-8---5---5--5-5-5-5-5----5---5--5-5-5-5-5-8---------------|


The End. I tracscribt this sh*t by 15 minutes...
            
Submit corrections

comments powered by Disqus
↑ Back to top | Dark Throne Tabs for Hate Is The Law. Lyrics for acoustic guitar and electric guitar. Tablatures and chords are parodies/interpretations of the original songs. You may use it for private study, scholarship, research or language learning purposes only