array
(
    
'storm1' => 'storm1'
    'darknewday' 
=> 'darknewday'
)
Storm Tabs (ver. 2) by Dark New Day @ AZ CHORDS.COM
» » »

Storm Tabs (ver.2)

Artists:  A B C D E F G H I J K L M N O P Q R S T U V W X Y Z # 

Storm Tabs (ver.2)

Dark New Day
Rating:
5/5 (1 vote)

Hard to play? Try these video lessons and learn fast.
                ------------------------------------------------------------------------------------------------
                             Storm - Dark new Day
------------------------------------------------------------------------------------------------


Tuning: C G C F Bb C

Intro/Verse:
--------0----------0------------0-------0-------------0-----------------------------------------|
----------0------0---0--------0-------0---0--------------0--------------------------------------|
--------------------------------------------------0---------------------------------------------|
-----2------------------------------------------------------------------------------------------|
--0-----------3---------3/5---------------------------------------------------------------------|
-----------------------------------5-----------4------------------------------------------------|

Chorus:
---0------0------0-------0------0---------------------------------------------------------------|
---0------0------0-------0------0---------------------------------------------------------------|
---2------0------11------2------2---------------------------------------------------------------|
---2------2------x-------0------0---------------------------------------------------------------|
---0------3------9-------x------x---------------------------------------------------------------|
-----------------0-------5------4---------------------------------------------------------------|


Bridge:
---0---------0-----0--------0-0--0-0---0-0--0-0---0-0--0-0--------------------------------------|
---2---------0-----0--------0-0--0-0---0-0--0-0---0-0--0-0--------------------------------------|
---1---------2-----2--------5-5--4-4---5-5--4-4---5-5--4-4--------------------------------------|
---2---------3-----4--------5-5--5-5---5-5--5-5---5-5--5-5--------------------------------------|
------------------------------------------------------------------------------------------------|
------------------------------------------------------------------------------------------------|

Gtr 1
---0----------------------------0-----------------------------0-------0-/-0----0----------------|
---0----------------------------0-----------------------------0-------0-/-0----0----------------|
---2----------------------------0-----------------------------11------11/-12---11---------------|
---2----------------------------2-----------------------------x-------x-/-x----x----------------|
---0----------------------------3-----------------------------9-------9-/-10---9----------------|
--------------------------------0-----------------------------0-------0---0----0----------------|
Gtr 2
------------------------------------------------------------------------------------------------|
------------------------------------------------------------------------------------------------|
---12/14~---12/14~---17/16/14---12/14~---12/14~---17/16/14--------------------------------------|
------------------------------------------------------------------------------------------------|
------------------------------------------------------------------------------------------------|
------------------------------------------------------------------------------------------------|
            
Hard to play? Try these video lessons and learn fast. | Correct




comments powered by Disqus
↑ Back to top | Tablatures and chords are parodies/interpretations of the original songs. You may use it for private study, scholarship, research or language learning purposes only