» » »

Dark New Day, Brother Tabs (ver.3)

Artists:  A B C D E F G H I J K L M N O P Q R S T U V W X Y Z # 

Brother Tabs (ver.3)

Dark New Day Tabs
Rating:
0/5 (0 votes)
Brother lessons Tabs too difficult? Try these video lessons and learn fast
                --------------------------------------------------------------------------------
                            Dark New Day - Brother                              
--------------------------------------------------------------------------------

Intro (Wah & Whammy pedal)
C |--------------------------------------------------------------------------|
G |---------------------------------7----------------------------------------|
Eb|-------------7b8b7b-------------7-7---------------7b8b7b------------7b8b--|
Bb|--4-4-4-7-7-7-------5-5-5-8-8-8-----8--4-4-4-7-7-7-------5-5-5-8-8-8------|
F |--------------------------------------------------------------------------|
Bb|--------------------------------------------------------------------------|

Intro 2Pre Chorus
C |----------------------------------------------------------------------|
G |----------------------------------------------------------------------|
Eb|-----12-12-12-12-------------5----5-----11-11-11-11-----5-7--8-8-8-8--|
Bb|-----x--x--x--x-------------------------x--x--x--x------x-x--x-x-x-x--|
F |--0--10-10-10-10---0-0-0--5h6---5h6--0--9--9--9--9---0--3-5--6-6-6-6--|
Bb|--0----------------0-0-0-------------0---------------0----------------|

Verse
C |---------------------------------------|
G |---------------------------------------|
Eb|---------------------------------------|
Bb|----0-----0---0---0---0-----0---0---0--|
F |------3h5---3-----------3h5---3--------|
Bb|--0-------------5---4-------------3----|

Chorus
C |-----------------------------------------------------------|
G |-----------------------------------------------------------|
Eb|-------------------------10--10-10-10--12--12--12--12--12--|
Bb|--0--0--0-0-0-0--0--0-0---8---8--8--8--10--10--10--10--10--|
F |--0--0--0-0-0-0--0--0-0---8---8--8--8--10--10--10--10--10--|
Bb|--0--0--0-0-0-0--0--0-0---8---8--8--8/-10--10--10--10--10--|

C |------------------------------------------------------|
G |------------------------------------------------------|
Eb|-------------------------10--10-10-10--7--7--7--7--7--|
Bb|--0--0--0-0-0-0--0--0-0---8---8--8--8--5--5--5--5--5--|
F |--0--0--0-0-0-0--0--0-0---8---8--8--8--5--5--5--5--5--|
Bb|--0--0--0-0-0-0--0--0-0---8---8--8--8/-5--5--5--5--5--|

Bridge
C |--------------|
G |--------------|
Eb|------3~--5~--|
Bb|--0~--3~--5~--|
F |--0~--1~--3~--|
Bb|--0~----------|

please note this is not my tab, all credit goes to its writer and to Dark New Day.
            
Submit corrections

comments powered by Disqus
↑ Back to top | Dark New Day Tabs for Brother. Lyrics for acoustic guitar and electric guitar. Tablatures and chords are parodies/interpretations of the original songs. You may use it for private study, scholarship, research or language learning purposes only