» » »

Darkness, Dinner Lady Arms Tabs (ver.4)

Artists:  A B C D E F G H I J K L M N O P Q R S T U V W X Y Z # 

Dinner Lady Arms Tabs (ver.4)

Darkness Tabs
Rating:
0/5 (0 votes)
Dinner Lady Arms lessons Tabs too difficult? Try these video lessons and learn fast
                these are the chords i think-its my interpretation of when they played it live , but 
is the chords i think it is.

intro--


e|-0--------------|-0--------------|-0--------------|-0--------------|
b|-0--------------|-0--------------|-0--------------|-0--------------|
g|-4--------------|-4--------------|-4--------------|-4--------------|x2
d|-4--------------|-2--------------|-4--------------|-2--------------|
a|-4--------------|-4--------------|-2--------------|-0--------------|
e|-2--------------|----------------|----------------|----------------|

verse is the same chords

e|-0--------------|-0--------------|-0--------------|-0--------------|
b|-0--------------|-0--------------|-0--------------|-0--------------|
g|-4--------------|-4--------------|-4--------------|-4--------------|x4
d|-4--------------|-2--------------|-4--------------|-2--------------|
a|-4--------------|-4--------------|-2--------------|-0--------------|
e|-2--------------|----------------|----------------|----------------|

run in to chorus
  1   2 +     
e|0-----0---------|----------------|
b|0-----0---------|----------------|
g|4-----4---------|----------------|x3
d|4-----2---------|----------------|
a|2-----0---------|----------------|
e|----------------|----------------|

  1 + 2 + 3 + 4 +  
e|------0-----0---|----------------|
b|------0-----0---|----------------|
g|------4-----4---|----------------|(x1)
d|------2-----4---|----------------|
a|4-----0-----2---|----------------|
e|----------------|----------------|

Chorus
                   1 + 2 + 3 + 4 +                    1 + 2 + 3 + 4 +
e|0---------------|0-------0-------|-0--------------|-0-------0------|
b|0---------------|0-------0-------|-0--------------|-0-------0------|
g|1---------------|4-------4-------|-4--------------|-4-------4------|x4
d|2---------------|4-------2-------|-4--------------|-2-------2------|
a|2---------------|2-------0-------|-4--------------|-4-------0------|
e|0---------------|----------------|-2--------------|----------------|
end
e|-----0-----------|
b|----0------------|
g|---1-------------|
d|--2--------------|
a|-2---------------|
e|0----------------|


then during the solo its the same as the chorus

the order is this

Intro
verse
lead in
chorus
intro section
verse
intro section
chorus
drum break
solo-chorus chords
end
            
Submit corrections

comments powered by Disqus
↑ Back to top | Darkness Tabs for Dinner Lady Arms. Lyrics for acoustic guitar and electric guitar. Tablatures and chords are parodies/interpretations of the original songs. You may use it for private study, scholarship, research or language learning purposes only