>
 >
Dinner Lady Arms 1

Dinner Lady Arms 1 Guitar Tabs

Darkness - Dinner Lady Arms 1 chords, tabs, tablatures, lyrics

Guitar lessons | Add/correct | Request | Top 50 tabs Artists:  A B C D E F G H I J K L M N O P Q R S T U V W X Y Z 0-9

Dinner Lady Arms 1 Guitar Tabs – Darkness

CD, Sheet music, Poster

Do you like Dinner Lady Arms 1? Share with your friends now
ChordsTabsTabs v2Tabs v3Tabs v4Tabs v5Ukulele
-------------------------------------------------------------------------------
THE DARKNESS – Dinner Lady Arms
-------------------------------------------------------------------------------

Tuning:Standard
2 Guitars


Intro:

Guitar 1
Clean, some echo-effect
e|---9-------9---------|---7-----7------|---7-----7------|---7---7-7-7-7-----|
B|-----10------10----10|-----9-----9---9|-----7-----7---7|-----5-5-5-5-5-----|
G|--------11------11---|-------9-----9--|-------8-----8--|-------------------|
D|---------------------|----------------|----------------|-------------------|
A|(9)------------------|(7)-------------|----------------|-------------------|
E|---------------------|----------------|(7)-------------|(5)----------------|


Guitar 2(slightly distorted)
(let the g-string slightly ring, then palm-mute it)
e|---------------------|----------------|----------------|-------------------|
B|---------------------|----------------|----------------|-------------------|
G|---------------------|-----9-----9---9|-----9-----9---9|-----9-----9---9---|
D|---7-9-----7-9-----7-|---9-----9------|---9-----9------|---9-----9---------|
A|-9------9-------9----|-7-----7-----7--|----------------|-0-----0-----0-----|
E|---------------------|----------------|-7-----7-----7--|-------------------|
  pm.........................  .......   .....  ....  ..  .....  ....  ..


Bridge:

Guitar1
                 x3
e|-------------------|-------------------|
B|-------------------|-------------------|
G|------6------------|-------------------|
D|--9---7------------|--------9----------|
A|--9---7------------|--6--7--9----------|
E|--7---5------------|--4--5--7----------|

Chorus:
Both Guitars (distorted)
e|---------------------|----------------|----------------|-----------------------|
B|---------------------|----------------|----------------|-----------------------|
G|---------------------|----------------|----------------|-6---------6-----------|
D|-2-------------------|-9------7-------|-4--------------|-6---------7-----------|
A|-2-------------------|-9------7-------|-4--------------|-4---------7-----------|
E|-0-------------------|-7------5-------|-2--------------|-----------5-----------|
   “...Aaaaarms...                    ...around me..  ...dinner lady arms”

e|---------------------|----------------|----------------|-----------------------|
B|---------------------|----------------|----------------|-----------------------|
G|-9-------------------|----------------|----------------|-6---------6-----------|
D|-9-------------------|-9--------------|-7--------------|-6---------7-----------|
A|-7-------------------|-9--------------|-7--------------|-4---------7-----------|
E|---------------------|-7--------------|-5--------------|-----------5-----------|
“...figure out..        figure had gone                   I was so wrong”

e|---------------------|----------------|----------------|-----------------------|
B|---------------------|----------------|----------------|-----------------------|
G|---------------------|----------------|----------------|-6---------6-----------|
D|-2-------------------|-9------7-------|-4--------------|-6---------7-----------|
A|-2-------------------|-9------7-------|-4--------------|-4---------7-----------|
E|-0-------------------|-7------5-------|-2--------------|-----------5-----------|
   “...Aaaaarms...                    ...around me..  ...dinner lady arms”


i´m too lazy to tab the solo, but the rythm guitar is playing the middle part of the chorus.


| /  slide up
| \  slide down
| h  hammer-on
| p  pull-off
| ~  vibrato
| +  harmonic
| x  Mute note
===============================================================================





Comments


Popular Darkness tabs & chords
I Believe In A Thing Called Love 4 Bass Tabs
Love Is Only A Feeling 2 Bass Tabs
Love On The Rocks With No Ice Bass Tabs
Hazel Eyes Chords
Bald Intro Tabs
Growing On Me 2 Tabs
I Beleive In A Thing Called Love 1 Tabs
I Believe In A Thing Called Love 5 Tabs
I Believe In A Thing Called Love Correct Tabs
Concrete Ukulele


Song lyrics



↑ Back to top | Tablatures and chords are parodies/interpretations of the original songs. You may use it for private study, scholarship, research or language learning purposes only
© 2014 AZChords.com Contact us | Privacy policy | DMCA | Add/correct tabs | Request tabs | Top 50 tabs