» » »

Darkness, One Way Ticket Tabs (ver.2)

Artists:  A B C D E F G H I J K L M N O P Q R S T U V W X Y Z # 

One Way Ticket Tabs (ver.2)

Darkness Tabs
 Rating:
4/5 (4 votes)
One Way Ticket lessons Tabs too difficult? Try these video lessons and learn fast
1
                One Way Ticket - The Darkness


Intro/Verse

e|---------------------------------------|
H|---------------------------------------|
G|--4-4-4-----6-6-6-----------4---2-2--2-| 
D|--4-4-4-----6-6-6-------2---4---2-2--2-|
A|--2-2-2-----4-4-4-------2---2---0-0--0-| 
E|------------------------0--------------|


Pre Chorus

e|------------------------------------|
H|------------------------------------|
G|--4-------2-4-------2-4----2--------|
D|--4-----2-2-4-----2-2-4----2--6--4--| 
A|--2-----2-0-2-----2-0-2----0--6--4--|
E|--------0---------0-----------4--2--|



Chorus

e|----------------------------------|
H|----------------------------------|
G|-----------2------2--4-4-4----4---|
D|-----------2------2--4-4-4----4---| x 4
A|-----------0------0--2-2-2----2---|
E|--0--2--4------4------------------|


Solo Rhythm

e|-------------------------------------|
H|-------------------------------------|
G|--6-6------------------2-2----4--5---|
D|--6-6----6-6----4-4----2-2----4--5---|
A|--4-4----6-6----4-4----0-0----2--3---|
E|---------4-4----2-2------------------|

Sitar solo

e|-7-9-7-------------------------------|
H|-------9-7---------------------------|
G|-----------9--6-7-10-7-6-------------| x 2
D|--------------------------6----------|
A|-----------------------------9-7-----|
E|---------------------------------9---|

e|-9-9--9-9-9---12b14-12-9----9-----------------------------|
H|-9-9--9-9-9--------------12----12-9-----------------------|
G|-9-9--9-9-9-------------------------11-9----9--11b13r11---|
D|-----------------------------------------11---------------|
A|----------------------------------------------------------|
E|----------------------------------------------------------|

e|-----------------------12--14b16-14--12------14b16r14p12------|
H|---------12----12--14--------------------14---------------14--|
G|--11\13-----13------------------------------------------------|
D|--------------------------------------------------------------|
A|--------------------------------------------------------------|
E|--------------------------------------------------------------|

e|----------------------------------------------------------|
H|--12\14---12\14------------------------9--11---9--11--9---|
G|--11\13---11\13----11\13--11\13--11----9--11---9--11--9---|
D|-------------------11\13--11\13--11-----------------------|
A|----------------------------------------------------------|
E|----------------------------------------------------------|

e|12b14-9----9-------------------------|
H|--------12---12-9----9---------------|
G|------------------11---11-9-7-10-7-6-|
D|-------------------------------------|
A|-------------------------------------|
E|-------------------------------------|

The song goes:
Intro/Verse x5
Pre chorus
Chorus
Verse x4
Pre chorus
Chorus
Solo
Pre Chorus
Chorus x2


If you dont have a sitar, but want your guitar to sound like one, try using a wah pedal.
For every note you play, start in treble/toe position and go slowly towards bass/heel
posistion. This works best in the slow parts in the start of the solo and the few last
notes.
            
Submit corrections

comments powered by Disqus
↑ Back to top | Darkness Tabs for One Way Ticket. Lyrics for acoustic guitar and electric guitar. 1 Tablatures and chords are parodies/interpretations of the original songs. You may use it for private study, scholarship, research or language learning purposes only