>
 >
Is It Just Me

Is It Just Me Guitar Tabs

Darkness - Is It Just Me chords, tabs, tablatures, lyrics

Guitar lessons | Add/correct | Request | Top 50 tabs Artists:  A B C D E F G H I J K L M N O P Q R S T U V W X Y Z 0-9

Is It Just Me Guitar Tabs – Darkness

CD, Sheet music, Poster

Do you like Is It Just Me? Share with your friends now
Bass TabsBass Tabs v2TabsTabs v2Tabs v3Tabs v4
-------------------------------------------------------------------------------
                             IS IT JUST ME - The Darkness
-------------------------------------------------------------------------------

Tuning: EADGBe, capo on 1st fret

Riff/Verse part 1

e|---------------------------------------------------------------------------|
B|---------------------------------------------------------------------------|
G|------------------------------------------------2--2--2-----2--2-----2--2--|
D|---2--2-----2--2-----2--2-----2--2-----2--2-----2--2--2-----2--2-----2--2--|
A|---2--2-----2--2-----2--2-----2--2-----2--2-----2--0--0--4--0--0--5--0--0--|
E|---0--0--4--0--0--5--0--0--4--0--0--5--0--0--4--0--------------------------|

e|---------------------------------------------------------------------------|
B|---------------------------------------------------------------------------|
G|------2--2-----2--2-----2--------------------------------------------------|
D|------2--2-----2--2-----2--------------------------------------------------|
A|---4--0--0--5--0--0--4--0--------------------------------------------------|
E|---------------------------------------------------------------------------|

Verse part 2

e|---------------------------------------------------------------------------|
B|---3--3-----3--3-----3--3-----3--3-----3--3-----3--------------------------|
G|---2--2-----2--2-----2--2-----2--2-----2--2-----2--------------------------|
D|---0--0--4--0--0--5--0--0--4--0--0--5--0--0--4--0--2--2-----2--2-----2--2--|
A|---------------------------------------------------2--2-----2--2-----2--2--|
E|---------------------------------------------------0--0--4--0--0--5--0--0--|

e|---------------------------------------------------------------------------|
B|---------------------------------------------------------------------------|
G|---------------------------------------------------------------------------|
D|------2--2-----2--2-----2--------------------------------------------------|
A|------2--2-----2--2-----2--------------------------------------------------|
E|---4--0--0--5--0--0--4--0--------------------------------------------------|

Bridge

e|---------------------------------------------------------------------------|
B|---------------------------------------------------------------------------|
G|---------------------------------------------------------------------------|
D|---------------------------------------------------5--5--5--5--5--5--5--5--|
A|---4--4--2--4--4--2--4--2--6--6--4--6--6--4--6--4--------------------------|
E|---2--2--0--2--2--0--2--0--4--4--2--4--4--2--4--2--------------------------|

e|---------------------------------------------------------------------------|
B|---------------------------------------------------------------------------|
G|---------------------------------------------------------------------------|
D|---7--7--7--7--7--7--7--7--------------------------------------------------|
A|---------------------------------------------------------------------------|
E|---------------------------------------------------------------------------|

Chorus

e|---------------------------------------------------------------------------|
B|---------------------------------------------------------------------------|
G|---4--4--6--6-----2--2-----------4--4--6--6-----2--------2--------2--------|
D|---4--4--6--6-----2--2--2--2-----4--4--6--6-----2--------2--------2--------|
A|---2--2--4--4-----0--0--2--2-----2--2--4--4-----0--------0--------0--------|
E|------------------------0--0-----------------------4--0-----4--0-----4--0--|

e|---------------------------------------------------------------------------|
B|---------------------------------------------------------------------------|
G|---4--4--6--6-----2--2-----------------------------------------------------|
D|---4--4--6--6-----2--2--2--2-----------------------------------------------|
A|---2--2--4--4-----0--0--2--2----------------------------------------------|
E|------------------------0--0-----------------------------------------------|

Post Chorus 1

e|---------------------------------------------------------------------------|
B|---3--3-----3--3-----3--3-----3--3-----3--3-----3--------------------------|
G|---2--2-----2--2-----2--2-----2--2-----2--2-----2---2222222222222----------|
D|---0--0--4--0--0--5--0--0--4--0--0--5--0--0--4--0---2222222222222----------|
A|----------------------------------------------------0000000000000----------|
E|---------------------------------------------------------------------------|

Post Chorus 2

e|---------------------------------------------------------------------------|
B|---------------------------------------------------------------------------|
G|-------------4--6--7-------------------------------------------------------|
D|----4--6--7--4--6--7-------------------------------------------------------|
A|----4--6--7--2--4--5-------------------------------------------------------|
E|----2--4--5----------------------------------------------------------------

Solo

e|----------------------|--------------8-9-11-11-11^|11P9-11-|-11-11^9---9----|
B|----------------------|----------8-9--------------|--------|---------12----|
G|---8^-----------------|------8-9------------------|--------|---------------|
D|-----11P9P11-11P9P11--|-9-11----------------------|--------|---------------|
A|----------------------|---------------------------|--------|---------------|
E|----------------------|---------------------------|--------|---------------|

e|----------------------|--14^14^-------|---------|---9----------------------|
B|--12P11P9--11-9-------|---------14-16^|14-------|----9-12P9P8-9P8----------|
G|----------------11-9-8|---------------|--16-15--|11^-------------11P9-11^--|
D|----------------------|---------------|---------|--------------------------|
A|----------------------|---------------|---------|--------------------------|
E|----------------------|---------------|---------|--------------------------|

e|-----------|---------------------------------------------------------------|
B|-----------|---------------------------------------------------------------|
G|-11P9------|--6-9-13-6-9-13-6-9-13-6-9-13-6-9-13-6-9-15-6-9-15-6-9-15-6-9--|
D|------11---|---------------------------------------------------------------|
A|-----------|---------------------------------------------------------------|
E|-----------|---------------------------------------------------------------|

e|---------------------------------------------------------------------------|
B|---------------------------------------------------------------------------|
G|15-6-9-15-6-9-16-6-9-16-6-9-16-6-9-16-6-9-16-6-9-18-6-9-18-6-9-18-6-9-18---|
D|---------------------------------------------------------------------------|
A|---------------------------------------------------------------------------|
E|---------------------------------------------------------------------------|

e|---------------------------------------------------------------------------|
B|---------------------------------------------------------------------------|
G|-6-9-18-6-9-20-6-9-20-6-9-20-6-9-20-6-9-20-6-9-21-6-9-21-6-9-21-6-9-21-6---|
D|---------------------------------------------------------------------------|
A|---------------------------------------------------------------------------|
E|---------------------------------------------------------------------------|

e|---------------------------------------------------------------------------|
B|----------------------------------------------11^11P9----------------------|
G|-9-21-21-6-21-6-20-6-20-6-18-6-18-6-16-6-16-6--------11-9-8----------------|
D|------------------------------------------------------------11-12----------|
A|---------------------------------------------------------------------------|
E|---------------------------------------------------------------------------|

e|---------------------------------------------------------------------------|
B|---------15-15-15-15-17^17-------------------------------------------------|
G|------14-------------------16-13-------------------------------------------|
D|--16-----------------------------14-14P12P11--16-18-19---------------------|
A|---------------------------------------------------------------------------|
E|---------------------------------------------------------------------------|

Solo (Backing Guitar)

e|----------|--------|---------|---------------------------------------------|
B|----------|--------|---------|---------------------------------------------|
G|----------|--------|-2-2-2-2-|---------------------------------------------|
D|---6-6-6-6|6-6-6-6-|-2-2-2-2-|4-4-4-4--------------------------------------|
A|---4-4-4-4|4-4-4-4-|-0-0-0-0-|4-4-4-4--------------------------------------|
E|----------|--------|---------|2-2-2-2--------------------------------------|

Post Chorus 3

e|---------------------------------------------------------------------------|
B|---3--3-----3--3-----3--3-----3--3-----3--3-----3--------------------------|
G|---2--2-----2--2-----2--2-----2--2-----2--2-----2---222222222--2-----------|
D|---0--0--4--0--0--5--0--0--4--0--0--5--0--0--4--0---222222222--2--2-2------|
A|----------------------------------------------------000000000--0--2-2------|
E|-------------------------------------------------------------40-4-0-0------|

Key

P = Pull
^ = Bend

Song Order

Riff/Verse Part 1 x 2
Riff/Verse Part 1 x 2
Verse Part 2 x 1
Bridge
Chorus
Post Chorus 1
Riff/Verse Part 1
Riff/Verse Part 1 x 2
Verse Part 2
Bridge
Chorus
Post Chorus 2
Solo (to solo, play Backing Chords x 4, then Verse Part 2, then Bridge)
Chorus (with an effect that takes out all the bass)
Chorus
Post Chorus 3

Hope you like it, laters! x





Comments


Popular Darkness tabs & chords
I Believe In A Thing Called Love 4 Bass Tabs
Friday Night Chords
Girlfriend Chords
Black Shuck 2 Tabs
Givin Up 3 Tabs
Growing On Me 2 Tabs
Growing On Me 4 Tabs
I Believe In A Thing Called Love 12 Tabs
Knockers 1 Tabs
Concrete Ukulele


Song lyrics



↑ Back to top | Tablatures and chords are parodies/interpretations of the original songs. You may use it for private study, scholarship, research or language learning purposes only
© 2014 AZChords.com Contact us | Privacy policy | DMCA | Add/correct tabs | Request tabs | Top 50 tabs