» » »

Darkness, Bare Back Tabs (ver.1)

Artists:  A B C D E F G H I J K L M N O P Q R S T U V W X Y Z # 

Bare Back Tabs (ver.1)

Darkness Tabs
 Rating:
4/5 (4 votes)
Bare Back lessons Tabs too difficult? Try these video lessons and learn fast
1
                


HI THIS IS ALL I GOT SO FAR . IF SOME 1 COULD WORK OUT THE REST THAT WOULD BE A GREAT HELP! PLEASE RATE IT GOOD. I AM ONLY 13!

INTRO

     E-5--3--3--2--2-
     B-3--3--3--3--3-
     G-2--2--2--2--2-
     D-0--0--0--0--0-
     A---------------
     E---------------

      MAIN RIFF
     E---------------------------
     B---------------------------
     G-2--2--5--4--2--2--4--0--0-
     D-0--0--0--0--0--0--0--0--0-
     A---------------------------
     E--------------------------- X8

     
     E-2----------------------------------------2--------------2-
     B-3----------------------------------------3--------------3-
     G-2----0--------2--2--5--4--2--2--4--0--0--2-----0--------2-
     D-0----0--2--0--0--0--0--0--0--0--0--0--0--0-----0--2--0--0-
     A---0-----3--2--------------------------------0-----3--2----
     E---2--3--------------------------------------2--3----------
      
     E-3---------------------------------------3--------2-
     B-3---------------------------------------3--------3-
     G-0--------2--2--5--4--2--0--2--4[5]4--2--0--------2-
     D-0--2--0--0--0--0--0--0--0--0--0------0--0--2--0--0-
     A-2--3--2---------------------------------2--3--2----
     E-3---------------------------------------3----------

IF ANY 1 NOWS THE SOLO CAN U ADD IT ON .THANKS.

ENJOY! THE DARKNESS RULE!!
            
Submit corrections

comments powered by Disqus
↑ Back to top | Darkness Tabs for Bare Back. Lyrics for acoustic guitar and electric guitar. 1 Tablatures and chords are parodies/interpretations of the original songs. You may use it for private study, scholarship, research or language learning purposes only