>
 >
Sound The Surrender 1

Sound The Surrender 1 Guitar Tabs

Darkest Hour - Sound The Surrender 1 chords, tabs, tablatures, lyrics

Guitar lessons | Add/correct | Request | Top 50 tabs Artists:  A B C D E F G H I J K L M N O P Q R S T U V W X Y Z 0-9

Sound The Surrender 1 Guitar Tabs – Darkest Hour

CD, Sheet music, Poster

Do you like Sound The Surrender 1? Share with your friends now
TabsTabs v2
Drop C-
                                               
D||------|------------------------------------|
A||------|------------------------------------|
F||------|------------------------------------|
C||------|---------------------------5--------|
G||------|--5----8---7-8-7-----5-7-8---8-7----|
C||------|-----0---0-------0-0-------------10-|


                                                                           
-------------------------------------|------------------------------------|
-------------------------------------|------------------------------------|
-------------------------------------|------------------------------------|
-----------------------5--5-x-7--7-x-|---------------------------5--------|
-------12---10-12-10---3--3-x-4--4-x-|--5----8---7-8-7-----5-7-8---8-7----|
--8--8----8----------8---------------|-----0---0-------0-0-------------10-|


                                                                           
-------------------------------------|------------------------------------|
-------------------------------------|------------------------------------|
-----------------------5--5-x-7--7-x-|---------------------------5--------|
-------12---10-12-10---3--3-x-4--4-x-|------------------------------------|
---5----8---7-8-7-----5-7-8---8-7----|------------------------------------|
--8--8----8----------8---------------|-----0---0-------0-0-------------10-|


                                                                           
-------------------------------------|------------------------------------|
-------------------------------------|------------------------------------|
-------------------------------------|------------------------------------|
-----------------------5--5-x-7--7-x-|---------------------------5--------|
-------12---10-12-10---3--3-x-4--4-x-|--5----8---7-8-7-----5-7-8---8-7----|
--8--8----8----------8---------------|-----0---0-------0-0-------------10-|


                                                             
-------------------------------------|----------------------|
-------------------------------------|----------------------|
-------------------------------------|----------------------|
-----------------------5--5-x-7--7-x-|--10--------10--------|
-------12---10-12-10---3--3-x-4--4-x-|--8---------7---------|
--8--8----8----------8---------------|----------------------|


                                                                           
------------------------------------|-------------------------------------|
------------------------------------|-------------------------------------|
------------------------------------|-------------------------------------|
---------------------------5--------|-----------------------5--5-x-7--7-x-|
--5----8---7-8-7-----5-7-8---8-7----|-------12---10-12-10---3--3-x-4--4-x-|
-----0---0-------0-0-------------10-|--8--8----8----------8---------------|


                                                                           
------------------------------------|-------------------------------------|
------------------------------------|-------------------------------------|
------------------------------------|-------------------------------------|
---------------------------5--------|-----------------------5--5-x-7--7-x-|
--5----8---7-8-7-----5-7-8---8-7----|-------12---10-12-10---3--3-x-4--4-x-|
-----0---0-------0-0-------------10-|--8--8----8----------8---------------|


                                                                           
------------------------------------|-------------------------------------|
------------------------------------|-------------------------------------|
------------------------------------|-------------------------------------|
---------------------------5--------|-----------------------5--5-x-7--7-x-|
--5----8---7-8-7-----5-7-8---8-7----|-------12---10-12-10---3--3-x-4--4-x-|
-----0---0-------0-0-------------10-|--8--8----8----------8---------------|


                                                                           
------------------------------------|-------------------------------------|
------------------------------------|-------------------------------------|
------------------------------------|-------------------------------------|
---------------------------5--------|-----------------------5--5-x-7--7-x-|
--5----8---7-8-7-----5-7-8---8-7----|-------12---10-12-10---3--3-x-4--4-x-|
-----0---0-------0-0-------------10-|--8--8----8----------8---------------|


                                                                             
----------------------|--------------------------|--------------------------|
----------------------|--------------------------|--------------------------|
----------------------|--------------------------|--------------------------|
--10--------10--------|--------------------------|--------------------------|
--8---------7---------|--------------------------|--------------------------|
----------------------|--0-0-0-0-0-0-0-0-0-0-0-0-|--3-3-3-3-3-3-3-3-3-3-3-3-|


                                                            
--------------------------|--------------------------------|
--------------------------|--------------------------------|
--------------------------|--------------------------------|
--------------------------|--------------------------------|
--------------------------|--------------------------------|
--8-8-8-8-8-8-8-8-8-8-8-8-|--5-5-5-5-5-5-10-10-10-10-10-10-|


                                                      
--------------------------|--------------------------|
--------------------------|--------------------------|
--------------------------|--------------------------|
--------------------------|--------------------------|
--------------------------|--------------------------|
--0-0-0-0-0-0-0-0-0-0-0-0-|--3-3-3-3-3-3-3-3-3-3-3-3-|


                                                                            
--------------------------|--------------------------------|---------------|
--------------------------|--------------------------------|---------------|
--------------------------|--------------------------------|---------------|
--------------------------|--------------------------------|---------------|
--------------------------|--------------------------------|--0------------|
--8-8-8-8-8-8-8-8-8-8-8-8-|--5-5-5-5-5-5-10-10-10-10-10-10-|--0------------|


                                                                  
---------------|---------------|-----------------|---------------|
---------------|---------------|-----------------|---------------|
---------------|---------------|-----------------|---------------|
---------------|---------------|-----------------|---------------|
--3------------|--8------------|--5------10------|--0------------|
--3------------|--8------------|--5------10------|--0------------|


                                                                           
---------------|---------------|-----------------|------------------------|
---------------|---------------|-----------------|------------------------|
---------------|---------------|-----------------|------------------------|
---------------|---------------|-----------------|------------------------|
--3------------|--8------------|--5------10------|------------------------|
--3------------|--8------------|--5------10------|--0-0-0-0-0-0-0-0-0-0-0-|


                                                                                
---------------------------------------|---------------------------------------|
---------------------------------------|---------------------------------------|
---------------------------------------|---------------------------------------|
--5-------7-8-5------------------------|--5-------7-8-5------------------------|
----8-7-5------------------------------|----8-7-5------------------------------|
----------------0--0-0-0-0-0-0-0-0-0-0-|----------------3--3-3-3-3-3-3-3-3-3-3-|


                                                                            
---------------------------------------|-----------------------------------|
---------------------------------------|-----------------------------------|
---------------------------------------|-----------------------------------|
--5-------7-8-5------------------------|-------7----8-----7--------5-------|
----8-7-5------------------------------|-----------------------------------|
----------------8--8-8-8-8-8-8-8-8-8-8-|--8-10---10----10----10-10-----10--|


                                                                                
---------------------------------------|---------------------------------------|
---------------------------------------|---------------------------------------|
---------------------------------------|---------------------------------------|
--5-------7-8-5------------------------|--5-------7-8-5------------------------|
----8-7-5------------------------------|----8-7-5------------------------------|
----------------0--0-0-0-0-0-0-0-0-0-0-|----------------3--3-3-3-3-3-3-3-3-3-3-|


                                        
---------------------------------------|
---------------------------------------|
---------------------------------------|
--5-------7-8-5------------------------|
----8-7-5------------------------------|
----------------8--8-8-8-8-8-8-8-8-8-8-|


                                                                       
------------------------------------------------------|---------------|
------------------------------------------------------|---------------|
------------------------------------------------------|---------------|
------------------------------------------------------|---------------|
--10-12-10---8-10-8---7-8-7-10-12-10---8-10-8---7-8-7-|--0------------|
-----------0--------0----------------0--------0-------|--0------------|


                                                                  
---------------|---------------|-----------------|---------------|
---------------|---------------|-----------------|---------------|
---------------|---------------|-----------------|---------------|
---------------|---------------|-----------------|---------------|
--3------------|--8------------|--5------10------|--0------------|
--3------------|--8------------|--5------10------|--0------------|


                                                                  
---------------|---------------|-----------------|---------------|
---------------|---------------|-----------------|---------------|
---------------|---------------|-----------------|---------------|
---------------|---------------|-----------------|---------------|
--3------------|--8------------|--5------10------|--0------------|
--3------------|--8------------|--5------10------|--0------------|


                                                                  
---------------|---------------|-----------------|---------------|
---------------|---------------|-----------------|---------------|
---------------|---------------|-----------------|---------------|
---------------|---------------|-----------------|---------------|
--3------------|--8------------|--5------10------|--0------------|
--3------------|--8------------|--5------10------|--0------------|


                                                                        
---------------|---------------|-----------------|---------------------|
---------------|---------------|-----------------|---------------------|
---------------|---------------|-----------------|---------------------|
---------------|---------------|-----------------|------------7--7--7--|
--3------------|--8------------|--5------10------|--0-0--0--0-5--5--5--|
--3------------|--8------------|--5------10------|--0-0--0--0----------|


                                                                              
----------------------|----------------|---------------|---------------------|
----------------------|----------------|---------------|---------------------|
----------------------|----------------|---------------|---------------------|
----------------------|----------------|---------------|------------7--7--7--|
--5--7--8/-12--10--8--|--5----------8--|--7------------|--0-0--0--0-5--5--5--|
----------------------|----------------|---------------|--0-0--0--0----------|


                                                              
-------------------------|----------------|------------------|
-------------------------|----------------|------------------|
-------------------------|----------------|------------------|
--------------7--10--10--|----------------|------------------|
--------------5--8---7---|--8----------8--|--10----------10--|
--0-0-0-0-0-0------------|--8----------8--|--10----------10--|


                                                                 
---------------------|-------------------------|----------------|
---------------------|-------------------------|----------------|
---------------------|-------------------------|----------------|
------------7--7--7--|--------------7--10--10--|----------------|
--0-0--0--0-5--5--5--|--------------5--8---7---|--5----------8--|
--0-0--0--0----------|--0-0-0-0-0-0------------|--8-------------|


                                                                               
----------------|---------------------|----------------------|----------------|
----------------|---------------------|----------------------|----------------|
----------------|---------------------|----------------------|----------------|
----------------|------------7--7--7--|----------------------|----------------|
--7-------------|--0-0--0--0-5--5--5--|--5--7--8/-12--10--8--|--5----------8--|
--10------------|--0-0--0--0----------|----------------------|----------------|


                                                            
---------------|---------------------|---------------------|
---------------|---------------------|---------------------|
---------------|---------------------|---------------------|
---------------|------------7--7--7--|------------7--7--7--|
--7------------|--0-0--0--0-5--5--5--|--0-0--0--0-5--5--5--|
---------------|--0-0--0--0----------|--0-0--0--0----------|


                                                                       
-----------------------------------------------|----------------------|
-----------------------------------------------|----------------------|
--------------------12----------------12-14-15-|--15--------14--------|
-----------12-14-15----15-14-12-14-15----------|----------------------|
--0--------------------------------------------|----------------------|
--0--------------------------------------------|----------------------|


                                              
-----------12-9----------9-15-12----------12-|
----------------11----11---------14----14----|
-------------------12---------------15-------|
---------------------------------------------|
--0------------------------------------------|
--0------------------------------------------|


                                             
--------------------------------------------|
--------------------------------------------|
--------------------------------------------|
--------------------------------------------|
--0--------------------5--------------------|
--0--0-0-0-0-0-0-0-0-0-8--8-8-8-8-8-8-8-8-8-|


                                             
--------------------------------------------|
--------------------------------------------|
--------------------------------------------|
--------------------------------------------|
--0--------------------5--------------------|
--0--0-0-0-0-0-0-0-0-0-8--8-8-8-8-8-8-8-8-8-|


                                             
--------------------------------------------|
--------------------------------------------|
--------------------------------------------|
--------------------------------------------|
--1--------------------4--------------------|
--5--5-5-5-5-5-5-5-5-5-7--7-7-7-7-7-7-7-7-7-|


                                             
--------------------------------------------|
--------------------------------------------|
--------------------------------------------|
--------------------------------------------|
--0--------------------5--------------------|
--0--0-0-0-0-0-0-0-0-0-8--8-8-8-8-8-8-8-8-8-|


                                             
--------------------------------------------|
--------------------------------------------|
--------------------------------------------|
--------------------------------------------|
--0--------------------5--------------------|
--0--0-0-0-0-0-0-0-0-0-8--8-8-8-8-8-8-8-8-8-|


                                             
--------------------------------------------|
--------------------------------------------|
--------------------------------------------|
--------------------------------------------|
--1--------------------4--------------------|
--5--5-5-5-5-5-5-5-5-5-7--7-7-7-7-7-7-7-7-7-|


                                             
--------------------------------------------|
--------------------------------------------|
--------------------------------------------|
--------------------------------------------|
--5--------------------0--------------------|
--8--8-8-8-8-8-8-8-8-8-0--0-0-0-0-0-0-0-0-0-|


                                             
--------------------------------------------|
--------------------------------------------|
--------------------------------------------|
--------------------------------------------|
--5--------------------0--------------------|
--8--8-8-8-8-8-8-8-8-8-0--0-0-0-0-0-0-0-0-0-|


                                             
--------------------------------------------|
--------------------------------------------|
--------------------------------------------|
--------------------------------------------|
--1--------------------4--------------------|
--5--5-5-5-5-5-5-5-5-5-7--7-7-7-7-7-7-7-7-7-|


                                             
--------------------------------------------|
--------------------------------------------|
--------------------------------------------|
--------------------------------------------|
--5--------------------0--------------------|
--8--8-8-8-8-8-8-8-8-8-0--0-0-0-0-0-0-0-0-0-|


                                                                              
--------------------------------------------|--------------------------------|
--------------------------------------------|--------------------------------|
--------------------------------------------|--------------------------------|
--------------------------------------------|--------------------------------|
--5--------------------0--------------------|--1--------------------4--------|
--8--8-8-8-8-8-8-8-8-8-0--0-0-0-0-0-0-0-0-0-|--5--5-5-5-5-5-5-5-5-5-7--------|


                                                                           
------------------------------------|-------------------------------------|
------------------------------------|-------------------------------------|
------------------------------------|-------------------------------------|
---------------------------5--------|-----------------------5--5-x-7--7-x-|
--5----8---7-8-7-----5-7-8---8-7----|-------12---10-12-10---3--3-x-4--4-x-|
-----0---0-------0-0-------------10-|--8--8----8----------8---------------|


                                                                           
------------------------------------|-------------------------------------|
------------------------------------|-------------------------------------|
------------------------------------|-------------------------------------|
---------------------------5--------|-----------------------5--5-x-7--7-x-|
--5----8---7-8-7-----5-7-8---8-7----|-------12---10-12-10---3--3-x-4--4-x-|
-----0---0-------0-0-------------10-|--8--8----8----------8---------------|


                                                                           
------------------------------------|-------------------------------------|
------------------------------------|-------------------------------------|
------------------------------------|-------------------------------------|
---------------------------5--------|-----------------------5--5-x-7--7-x-|
--5----8---7-8-7-----5-7-8---8-7----|-------12---10-12-10---3--3-x-4--4-x-|
-----0---0-------0-0-------------10-|--8--8----8----------8---------------|


                                                                               
------------------------------------|-------------------------------------|---|
------------------------------------|-------------------------------------|---|
------------------------------------|-------------------------------------|---|
---------------------------5--------|-----------------------5--5-x-7--7-x-|---|
--5----8---7-8-7-----5-7-8---8-7----|-------12---10-12-10---3--3-x-4--4-x-|---|
-----0---0-------0-0-------------10-|--8--8----8----------8---------------|---|


                                                                  
---------------|---------------|-----------------|---------------|
---------------|---------------|-----------------|---------------|
---------------|---------------|-----------------|---------------|
---------------|---------------|-----------------|---------------|
--3------------|--8------------|--5------10------|--0------------|
--3------------|--8------------|--5------10------|--0------------|


                                                                        
---------------|---------------|-----------------|---------------------|
---------------|---------------|-----------------|---------------------|
---------------|---------------|-----------------|---------------------|
---------------|---------------|-----------------|------------7--7--7--|
--3------------|--8------------|--5------10------|--0-0--0--0-5--5--5--|
--3------------|--8------------|--5------10------|--0-0--0--0----------|


                                                                             
---------------------|-----------------|-----------------|------------------|
---------------------|-----------------|-----------------|------------------|
---------------------|-----------------|-----------------|--7------9----10--|
------------7--7--7--|--2------3----0--|--3------5----7--|------------------|
--0-0--0--0-5--5--5--|-----------------|-----------------|------------------|
--0-0--0--0----------|-----------------|-----------------|------------------|


                                                                 
----------------|---------------|---------------|---------------|
----------------|---------------|---------------|---------------|
--9b-----9------|---------------|---------------|---------------|
----------------|---------------|---------------|---------------|
----------------|--0------------|--3------------|--8------------|
----------------|--0------------|--3------------|--8------------|


                                                                  
-----------------|---------------|---------------|---------------|
-----------------|---------------|---------------|---------------|
-----------------|---------------|---------------|---------------|
-----------------|---------------|---------------|---------------|
--5------10------|--0------------|--3------------|--8------------|
--5------10------|--0------------|--3------------|--8------------|


                                                              
-----------------|---------------------|---------------------|
-----------------|---------------------|---------------------|
-----------------|---------------------|---------------------|
-----------------|------------7--7--7--|------------7--7--7--|
--5------10------|--0-0--0--0-5--5--5--|--0-0--0--0-5--5--5--|
--5------10------|--0-0--0--0----------|--0-0--0--0----------|


                                                              
----------------------|---------------------|---------------||
----------------------|---------------------|---------------||
----------------------|---------------------|---------------||
------------7-7--7--7-|-----------10--8--7--|--7------------||
--0-0--0--0-5-5--5--5-|--5--7--8------------|--5------------||
--0-0--0--0-----------|---------------------|--0------------||





Comments


Popular Darkest Hour tabs & chords
Convalescence 1 Bass Tabs
Eclipse 1 Bass Tabs
How The Beautiful Decay 2 Bass Tabs
Blessed Infection Tabs
Deliver Us Tabs
Demons 2 Tabs
Doomsayer Intro Tabs
Oklahoma Tabs
Pay Phones And Pills (Intro) Tabs
Treason In Trust Tabs


Song lyrics



↑ Back to top | Tablatures and chords are parodies/interpretations of the original songs. You may use it for private study, scholarship, research or language learning purposes only
© 2014 AZChords.com Contact us | Privacy policy | DMCA | Add/correct tabs | Request tabs | Top 50 tabs