» » »

Doomsayer Tabs (ver.1)

Artists:  A B C D E F G H I J K L M N O P Q R S T U V W X Y Z # 

Doomsayer Tabs (ver.1)

Darkest Hour
Rating:
3/5 (5 votes)
Tabs too difficult? Try these video lessons and learn fast.
                -------------------------------------------------------------------------------
                             DOOMSAYER (THE BEGINNING OF THE END) - Darkest Hour
-------------------------------------------------------------------------------

Tuning: CGCFAD

If you aren't used to string skipping this can be a very tricky solo.

D|------------7-12-7----------------------7-14----15----17----15-22t-p17-p14-h17-----|
A|--------5-8--------8-5--------------5-8------12----12----12------------------------|
F|-----------------------------------------------------------------------------------|
C|---5-9------------------9-5----5-9-------------------------------------------------|
G|-7---------------------------7-----------------------------------------------------|
C|-----------------------------------------------------------------------------------|

D|-----------------------------------------------------------------------------------|
A|-13h-19t-p13-----------------------------15-20-19-----------15-20-19-20------------|
F|-------------14h-19t-p14--------------------------7+~------------------------------|
C|-------------------------16h-19t-p16------------------14-17-------------17-16------|
G|-------------------------------------17--------------------------------------------|
C|-----------------------------------------------------------------------------------|

D|---------------------15-12----------------12-15-12----------------12-19-15---------|
A|-17-19-----------------------------------------------------------------------------|
F|-------/12-11-/14-12--------16-12----12-16----------16-12----12-16----------19-16--|
C|---------------------------------14----------------------14------------------------|
G|-----------------------------------------------------------------------------------|
C|-----------------------------------------------------------------------------------|

D|----------15-19-15----------------15-14-10----------------10-14-10-----------------|
A|-----------------------------------------------------------------------------------|
F|----16-19----------19-16----16-19----------14-11----11-14----------14-11----11-14--|
C|-17----------------------17----------------------12----------------------12--------|
G|-----------------------------------------------------------------------------------|
C|-----------------------------------------------------------------------------------|

D|-10-14-14-10-10-15-15-10-10-14-14-10-10-12-12-15-12----------------12-15-12--------|
A|-----------------------------------------------------------------------------------|
F|----------------------------------------------------16-12----12-16----------12-16--|
C|---------------------------------------------------------14------------------------|
G|-----------------------------------------------------------------------------------|
C|-----------------------------------------------------------------------------------|

D|--------------19-15-----------------15-18-17-15-------------------13-15-17-14-10---|
A|------------------------------------------------18-17-15\13-15-17------------------|
F|----------14---------19-16----16-19------------------------------------------------|
C|-14-16-17------------------17------------------------------------------------------|
G|-----------------------------------------------------------------------------------|
C|-----------------------------------------------------------------------------------|

D|----------------10-14-10-15-10-14-10-12-17-14----14-10----10-5---5-2---------------|
A|----------------------------------------------15-------10------7-----3-/7-5-/5-3---|
F|-14-11----11-14--------------------------------------------------------------------|
C|-------12--------------------------------------------------------------------------|
G|-----------------------------------------------------------------------------------|
C|-----------------------------------------------------------------------------------|

D|----------------------------------------------------------------------|
A|-/10-8-7h-8p-7-\5h-7b8--------15-20-19-20-------17-19-----------------|
F|-------------------------------------------------------/12-11-/14-12--|
C|------------------------14-17-------------17-16-----------------------|
G|----------------------------------------------------------------------|
C|----------------------------------------------------------------------|

| /  slide up
| \  slide down
| h  hammer-on
| p  pull-off
| ~  vibrato
| +  harmonic
| x  Mute note
| t  tap
| b  bend
=====================================================================================
            
Tabs too difficult? Try these video lessons and learn fast.


comments powered by Disqus
↑ Back to top | Tablatures and chords are parodies/interpretations of the original songs. You may use it for private study, scholarship, research or language learning purposes only