» » »

Doomsayer Tabs (ver.2)

Artists:  A B C D E F G H I J K L M N O P Q R S T U V W X Y Z # 

Doomsayer Tabs (ver.2)

Darkest Hour
Rating:
0/5 (0 votes)

Hard to play? Try these video lessons and learn fast.
                yep...

Album:deliver us

Song--Doomsayer

1st guitar        (repeat 7 times)
|-----------------|
|----------------O|
|-----7~--7--7----|
|----0---0--0-----|
|---0------------O|
|--0----8--7------|


|-------------|
|-------------|
|-----7~------|
|----0--------|
|---0---------|
|--0----------|

2nd guitar
finger picking-----this part fades in
                           (5 times)
|--5-5-5-5--3-3--6-6-----|
|---3-3-3-3--3-3--3-3---O|
|------------------------|
|--0--------0----0-------|
|-----------------------O|
|------------------------|


|--5-5-5~----|
|---3-3------|
|------------|
|--0---------|
|------------|
|------------|


both

|------------------------|
|------------------------|
|------------------------|
|--3-3-3-3-5-5-5-5-------|
|--3-3-3-3-5-5-5-5-------|
|--3-3-3-3-5-5-5-5-------|


2nd-distorted     (repeat this until "mortal lives")
|-----------------|
|----------------O|
|-----7~--7--7----|
|----0---0--0-----|
|---0------------O|
|--0----8--7------|

1st--i doubt this is exact but its close..
|---------------------------------| repeat until mortal lives
|--------------------------------O|
|--5-7-7~---5-7-7/10-9-7-5-7-7----|
|---------------------------------|
|--------------------------------O|
|---------------------------------|

|------------------|
|------------------|
|------------------|
|--3-3-3-3-5-5-5-5-|
|--3-3-3-3-5-5-5-5-|
|--3-3-3-3-5-5-5-5-|
             . . .


this parts fun
|------------------------------------------------|
|-------------6-6--6-5-5-------------------------|
|-------4-5-7-----------------4-5-7--7-7--7-5-5--|
|--4-5-7-----------------4-5-7-------------------|
|------------------------------------------------|
|------------------------------------------------|


|----------------------------|
|------------6-6--6-5-5------|
|-------4-5-7----------------|
|--4-5-7---------------------|
|----------------------------|
|----------------------------|

|-------------------------------------------|
|-------------------------------------------|
|--4-------------------4-5-4----------------|
|---7-5-4---------4-5-7-----7-5-4-----------|
|--------7-5-4-5-7---------------7-5-4-5-7--|
|-------------------------------------------|

|------------------------------------------------|
|-------------6-6--6-5-5-------------------------|
|-------4-5-7-----------------4-5-7--7-7--7-5-5--|
|--4-5-7-----------------4-5-7-------------------|
|------------------------------------------------|
|------------------------------------------------|


|----------------------------|
|------------6-6--6-5-5------|
|-------4-5-7----------------|
|--4-5-7---------------------|
|----------------------------|
|----------------------------|


|----------------------------------------------------------------------------|
|----------------------------------------------------------------------------|
|----------------------4-------------------4-5-4-------------------4-5-7-5-4-|
|--7-5-4---------4-5-7--7-5-4---------4-5-7-----7-5-4---------4-5-7----------|
|-------7-5-4-5-7------------7-5-4-5-7---------------7-5-4-5-7---------------|
|----------------------------------------------------------------------------|


|-------|
|-------|
|-------|
|--7-5--|
|-------|
|-------|


|-----------------|
|----------------O|
|-----7~--7--7----|
|----0---0--0-----|
|---0------------O|
|--0----8--7------|


|---------------------------------|
|--------------------------------O|
|--5-7-7~---5-7-7/10-9-7-5-7-7----|
|---------------------------------|
|--------------------------------O|
|---------------------------------|


|----------------|
|----------------|
|----------------|
|--3-3-3-3-5---5-|
|--3-3-3-3-5---5-|
|--3-3-3-3-5---5-|

|------------------------------------------------|
|-------------6-6--6-5-5-------------------------|
|-------4-5-7-----------------4-5-7--7-7--7-5-5--|
|--4-5-7-----------------4-5-7-------------------|
|------------------------------------------------|
|------------------------------------------------|


|----------------------------|
|------------6-6--6-5-5------|
|-------4-5-7----------------|
|--4-5-7---------------------|
|----------------------------|
|----------------------------|

|-------------------------------------------|
|-------------------------------------------|
|--4-------------------4-5------------------|
|---7-5-4---------4-5-7---7-5-4-------------|
|--------7-5-4-5-7-------------7-5-4-5-7----|
|-------------------------------------------|

|------------------------------------------------|
|-------------6-6--6-5-5-------------------------|
|-------4-5-7-----------------4-5-7--7-7--7-5-5--|
|--4-5-7-----------------4-5-7-------------------|
|------------------------------------------------|
|------------------------------------------------|


|----------------------------|
|------------6-6--6-5-5------|
|-------4-5-7----------------|
|--4-5-7---------------------|
|----------------------------|
|----------------------------|


|------------------------------------|
|------------------------------------|
|---------------------4--------------|
|--7-5-4---------4-5-7--7-5-4--------|
|-------7-5-4-5-7------------7-5-4---|
|------------------------------------|


idk if this is right..its really hard to tell when goin by ear
|---------------------------------------------------------------|
|O--------------------------------------------------------------|
|---------------------------------------------------------------|
|--5-0-7-0-8-0-7-0-8-0-10-0-8-0-7-0-5-0-7-0-8-0-7-0-5-0-7-0-8---|
|O--------------------------------------------------------------|
|---------------------------------------------------------------|


|-------------------------------------------------------------------------|
|------------------------------------------------------------------------O|
|-------------------------------------------------------------------------|
|--0-7-0-3-0-5-0-7-0-5-0-3-0-5-0-7-0-5-0-2-0-3-0-5-0-3-0-2-0-3~2-3-2-0----|
|------------------------------------------------------------------------O|
|-------------------------------------------------------------------------|


|-----------------|
|----------------O|
|-----7~--7--7----|
|----0---0--0-----|
|---0------------O|
|--0----8--7------|


|---------------------------------|
|--------------------------------O|
|--5-7-7~---5-7-7/10-9-7-5-7-7----|
|---------------------------------|
|--------------------------------O|
|---------------------------------|

u got to figure out the rythem..
|-----------------------------------------------------------------------------|
|-----------------------------------------------------------------------------|
|-----------------------------------------------------------------------------|
|-----------------------------8//-7//-10///-8///-7///-5///^7///^5///-3///-5//-|
|5///-10///-8///-7//-8///-5///------------------------------------------------|
|-----------------------------------------------------------------------------|


|------------------------------|
|------------------------------|
|------------------------------|
|------------------------------|
|5///-7///-8///-7///-3///------|
|------------------------------|

im gonna work on the solo with one of my friends so it shuld be done in 1-3 weeks srry...


|-----------------------------------------------------|
|O----------------------------------------------------|
|-----------------------------------------------------|
|-------5-----5-----4-----4-----4-----4-----2-----2---|
|O-33333-33333-22222-22222-22222-22222-00000-00000----|
|-----------------------------------------------------|


|--------------------------------------------------|
|-------------------------------------------------O|
|--------------------------------------------------|
|-----5-----5-----4-----4-----4-----4-5-4-2~-------|
|33333-33333-22222-22222-22222-22222--------------O|
|--------------------------------------------------|

                              (just repeat this until the end of the solo)
|-----------------------------------------------------|
|-----------------------------------------------------|
|-----------------------------------------------------|
|-------5-----5-----4-----4-----4-----4-----2-----2---|
|-33333-33333-22222-22222-22222-22222-00000-00000-----|
|-----------------------------------------------------|


|---------------------------------------------------|
|---------------------------------------------------|
|---------------------------------------------------|
|5-5-5-5-5-5-5-5-7-7-7-7-8-8-8-8-8-8-8-8-8-8-8-8----|
|3-3-3-3-3-3-3-3-5-5-5-5-6-6-6-6-6-6-6-6-6-6-6-6----|
|---------------------------------------------------|


|---------------------------------------------|
|---------------------------------------------|
|--7-5-4---------4-5-7-5-4---------4-5-7------|
|-------7-5-4-5-7---------7-5-4-5-7-----------|
|---------------------------------------------|
|---------------------------------------------|


then he screams

|-------------------|
|------------------O|
|-----7~--7---7-----|
|----0---0-0-0-0----|
|---0--------------O|
|--0----8---7-------|


|-----------------------------------------------------------------------------|
|-----------------------------------------------------------------------------|
|-----------------------------------------------------------------------------|
|-----------------------------8//-7//-10///-8///-7///-5///^7///^5///-3///-5//-|
|5///-10///-8///-7//-8///-5///------------------------------------------------|
|-----------------------------------------------------------------------------|

End

1st guitar
|-------|
|-------|
|-------|
|--5~~~-
|-------|
|-------|
|
|2nd guitar
|-------|
|-------|
|--7~~~-
|-------|
|-------|
|-------|
            
Hard to play? Try these video lessons and learn fast. | Correct




comments powered by Disqus
↑ Back to top | Tablatures and chords are parodies/interpretations of the original songs. You may use it for private study, scholarship, research or language learning purposes only