>
 >
Doomsayer 2

Doomsayer 2 Guitar Tabs

Darkest Hour - Doomsayer 2 chords, tabs, tablatures, lyrics

Guitar lessons | Add/correct | Request | Top 50 tabs Artists:  A B C D E F G H I J K L M N O P Q R S T U V W X Y Z 0-9

Doomsayer 2 Guitar Tabs – Darkest Hour

CD, Sheet music, Poster

Do you like Doomsayer 2? Share with your friends now
TabsTabs v2Tabs v3Tabs v4
-----------------------------------------------------------------------------
                         Darkest Hour - Doomsayer
-----------------------------------------------------------------------------

Tuning:CGCFAD

D|----------------------------------------------------------------------(x6)|
A|--------------------------------------------------------------------------|
F|-------7------7-------7---------------------------------------------------|
C|-----0------0---0---0---0-------------------------------------------------|
G|---0----------------------------------------------------------------------|
C|-0-------10-------8-------------------------------------------------------|

D|--------------------------------------------------------------------------|
A|--------------------------------------------------------------------------|
F|-------7------------------------------------------------------------------|
C|-----0--------------------------------------------------------------------|
G|---0-----5-5-5-5-7-7-7-7--------------------------------------------------|
C|-0-------5-5-5-5-7-7-7-7--------------------------------------------------|
           x x x x x x x x  

CHORUS
D|--------------------------------------------------------------------------|
A|--------------------------------------------------------------------------|
F|-----7---7------------7------------7--------------------------------------|
C|-0-0-0-0-0------------0------------0--------------------------------------|
G|-0-0---0---0-0--10-10---10-10--8-8---8-8----------------------------------|
C|-0-0---0---0-0--10-10---10-10--8-8---8-8----------------------------------|
 |                                                                          |
D|--------------------------------------------------------------------------|
A|--------------------------------------------------------------------------|
F|-----7--7--7----------7------------7--------------------------------------|
C|-0-0-8--7--7----------0------------0--------------------------------------|
G|-0-0------------10-10---10-10--8-8---8-8----------------------------------|
C|-0-0------------10-10---10-10--8-8---8-8----------------------------------|
 |                                                                          |
D|--------------------------------------------------------------------------|
A|--------------------------------------------------------------------------|
F|-----10--9-9----------7---------------------------------------------------|
C|-0-0------------------0------------7--------------------------------------|
G|-0-0------------10-10---10-10--8-8-0-8-8----------------------------------|
C|-0-0------------10-10---10-10--8-8---8-8----------------------------------|
 |                                                                          |
D|--------------------------------------------------------------------------|
A|--------------------------------------------------------------------------|
F|-----7---7----------7---------7-------------------------------------------|
C|-0-0-0-0-0----------0---------0-------------------------------------------|
G|-0-0---0---0-0--5-5---5-5-7-7---7-7---------------------------------------|
C|-0-0---0---0-0--5-5---5-5-7-7---7-7---------------------------------------|

CHORUS ENDING I
D|--------------------------------------------------------------------------|
A|--------------------------------------------------------------------------|
F|--------------------------------------------------------------------------|
C|--------------------------------------------------------------------------|
G|-5-5-5-5-7-7-7-7----------------------------------------------------------|
C|-5-5-5-5-7-7-7-7----------------------------------------------------------|
             x x x
VERSE
D|--------------------------------------------------------------------------|
A|--------------------------------------------------------------------------|
F|---------7----10----10-------9--------------------------------------------|
C|---7h8p0------------------------------------------------------------------|
G|-5------------------------------------------------------------------------|
C|----------0-0----10----10-10---8-7h8--------------------------------------|
 |          x x    x     x  x                                               |
D|--------------------------------------------------------------------------|
A|--------------------------------------------------------------------------|
F|---------7----------------------------------------------------------------|
C|---7h8p0------------------------------------------------------------------|
G|-5-------------8----8-------7---------------------------------------------|
C|-----------0-0---10---10-10---8-7h8---------------------------------------|
 |           x x   x    x  x                                                |    
D|----------------------------------------------------------------------(x2)|
A|--------------------------------------------------------------------------|
F|---------7----10----10-------9--------------------------------------------|
C|---7h8p0------------------------------8-7-5-------5-7-10-8-7---------7-8--|
G|-5------------------------------------------8-7-8------------10-8-10------|
C|----------0-0----10----10-10---8-7h8--------------------------------------|
            x x    x     x  x   
D|--------------------------------------------------------------------------|
A|--------------------------------------------------------------------------|
F|--------------------------------------------------------------------------|
C|-12-10----------------10-12-11----------------11--------------------------|
G|-------13-12-10-12-13----------13-12-10-12-13-----------------------------|
C|--------------------------------------------------------------------------|

CHORUS

CHORUS ENDING II
D|--------------------------------------------------------------------------|
A|--------------------------------------------------------------------------|
F|--------------------------------------------------------------------------|
C|--------------------------------------------------------------------------|
G|-5-5-5-5-7-7--7-----------------------------------------------------------|
C|-5-5-5-5-7-7--7-----------------------------------------------------------|

VERSE (x1)
     
BRIDGE      
D|--------------------------------------------------------------------------|
A|--------------------------------------------------------------------------|
F|--------------------------------------------------------------------------|
C|---7h8p0-10p0-12p0-15p0-14p0-12p0-7p0-8p0---------------------------------|
G|-5------------------------------------------------------------------------|
C|--------------------------------------------------------------------------|
 |                                                                          |
D|--------------------------------------------------------------------------|
A|--------------------------------------------------------------------------|
F|--------------------------------------------------------------------------|
C|---7h8p0-10p0-8p0---7h8p0-10p0-8p0----------------------------------------|
G|-5----------------5-------------------------------------------------------|
C|--------------------------------------------------------------------------|
 |                                                                          |
D|--------------------------------------------------------------------------|
A|--------------------------------------------------------------------------|
F|--------------------------------------------------------------------------|
C|---2h3p0-5p0-3p0----2h3p0-5p0-3p0-----------------------------------------|
G|-1----------------1-------------------------------------------------------|
C|--------------------------------------------------------------------------|
 |                                                                          |
D|--------------------------------------------------------------------------|
A|--------------------------------------------------------------------------|
F|--------------------------------------------------------------------------|
C|---2h3p0-5p0-3p0--3--2--8--7----------------------------------------------|
G|-3------------------------------------------------------------------------|
C|--------------------------------------------------------------------------|

CHORUS

VARIATION
D|--------------------------------------------------------------------------|
A|--------------------------------------------------------------------------|
F|--------------------------------------------------------------------------|
C|--------------------------------------------------------------------------|
G|-5555555555555555-1010-88-77-88-77-88-55----------------------------------|
C|--------------------------------------------------------------------------|
 |                                                                          |
D|--------------------------------------------------------------------------|
A|--------------------------------------------------------------------------|
F|--------------------------------------------------------------------------|
C|------------------1010-88-77-88-77-88-------------------------------------|
G|-5555555555555555---------------------------------------------------------|
C|--------------------------------------------------------------------------|
 |                                                                          |
D|--------------------------------------------------------------------------|
A|--------------------------------------------------------------------------|
F|--------------------------------------------------------------------------|
C|-7777777777777777-77-55----55---------------------------------------------|
G|------------------------88----88-77---------------------------------------|
C|--------------------------------------------------------------------------|
 |                                                                          |
D|--------------------------------------------------------------------------|
A|--------------------------------------------------------------------------|
F|--------------------------------------------------------------------------|
C|--------------------------------------------------------------------------|
G|-55555555555555555-55-77-88-77--------------------------------------------|
C|--------------------------------------------------------------------------|

BREAKDOWN
D|--------------------------------------------------------------------------|
A|--------------------------------------------------------------------------|
F|--------------------------------------------------------------------------|
C|-------------5---------5------------------4---------4---------------------|
G|--------------------------------------------------------------------------|
C|-2-2-2-2-2-2---2-2-2-2---2-2--5-5-5-5-5-5---5-5-5-5---5-5-----------------|
 | x x x x x x   x x x x   x x  x x x x x x   x x x x   x x                 |
D|--------------------------------------------------------------------------|
A|--------------------------------------------------------------------------|
F|--------------------------------------------------------------------------|
C|-------------4---------4------------------2---------2---------------------|
G|--------------------------------------------------------------------------|
C|-0-0-0-0-0-0---0-0-0-0---0-0--0-0-0-0-0-0---0-0-0-0---0-0-----------------|
 | x x x x x x   x x x x   x x  x x x x x x   x x x x   x x                 |
D|--------------------------------------------------------------------------|
A|--------------------------------------------------------------------------|
F|--------------------------------------------------------------------------|
C|-------------5---------5------------------4---------4---------------------|
G|--------------------------------------------------------------------------|
C|-2-2-2-2-2-2---2-2-2-2---2-2--5-5-5-5-5-5---5-5-5-5---5-5-----------------|
 | x x x x x x   x x x x   x x  x x x x x x   x x x x   x x                 |
D|-----------------------------|----(1st-time)|----(2nd time)---------------|
A|-----------------------------|--------------|-----------------------------|
F|-----------------------------|--4--2--2-----|--4--5--4--------------------|
C|-------------4---------4-----|--------------|-----------------------------|
G|-----------------------------|--------------|-----------------------------|
C|-0-0-0-0-0-0---0-0-0-0---0-0-|--------------|-----------------------------|
   x x x x x x   x x x x   x x

SOLO
D|---------------7h12p7---------------------------14----15----17----15------|
A|---------5h7h8--------8p7--------------5h7h8-12----12----12----12---------|
F|--------------------------9\4---------------------------------------------|
C|---4/5h9-------------------------4/5h9------------------------------------|
G|-7-----------------------------5------------------------------------------|
C|--------------------------------------------------------------------------|
 | t              t     t     t        t        t                           |
D|-22-17-14-17-14-----------------------------------------------------------|
A|----------------19-15-19-15-19-15-------------------------7+--------------|
F|----------------------------------14-19-14-------------5+----7+-----------|
C|-------------------------------------------16-19-16-----------------------|
G|--------------------------------------------------------------------------|
C|--------------------------------------------------------------------------|
 |                                                                          |
D|-----------15-14-15--------12-14------------------------------------------|
A|-------15-----------------------------------------------------------------|
F|----12----------------------------11/12-11-12/14-12-----------------------|
C|-14-----------------17--16------------------------------------------------|
G|--------------------------------------------------------------------------|
C|--------------------------------------------------------------------------|
 |                                                                          |
D|-15-12----------------12-15-12----------------12--------------------------|
A|--------------------------------------------------------------------------|
F|-------16-12----12-16----------16-12----12-16-----------------------------|
C|-------------14----------------------14-----------------------------------|
G|--------------------------------------------------------------------------|
C|--------------------------------------------------------------------------|
 |                                                                          |
D|-19-15----------------15-19-15----------------15--------------------------|
A|--------------------------------------------------------------------------|
F|-------19-16----16-19----------19-16----16-19-----------------------------|
C|-------------17----------------------17-----------------------------------|
G|--------------------------------------------------------------------------|
C|--------------------------------------------------------------------------|
 |                                                                          |
D|--------------------------------------------------------------------------|
A|-19-15----------------15-19-15----------------15--------------------------|
F|--------------------------------------------------------------------------|
C|-------19-16----16-19----------19-16----16-19-----------------------------|
G|-------------17----------------------17-----------------------------------|
C|--------------------------------------------------------------------------|
 |                                                                          |
D|--------------------------------------------------------------------------|
A|-19p15-19p15----15-20p15-20p15----15-19p15-19p15----15-17p15-17p15----15--|
F|-------------16----------------16----------------16----------------16-----|
C|--------------------------------------------------------------------------|
G|--------------------------------------------------------------------------|
C|--------------------------------------------------------------------------|
 |                                                                          |
D|-15-12----------------12-15-14-12-----------------------------------------|
A|----------------------------------15--------------------------------------|
F|-------16-12----12-16-------------------------14--------------------------|
C|-------------14----------------------14-16-17-----------------------------|
G|--------------------------------------------------------------------------|
C|--------------------------------------------------------------------------|
 |                                                                          |
D|-19-15-----------------15-17-15-14-------------------12-14-15-------------|
A|-----------------------------------17-15-13-12-13-15----------------------|
F|--------19-16----16-19----------------------------------------------------|
C|--------------17----------------------------------------------------------|
G|--------------------------------------------------------------------------|
C|--------------------------------------------------------------------------|
 |                                                                          |
D|-14-10----------------10-14p10-15p10-14p10-12p10--------------------------|
A|--------------------------------------------------------------------------|
F|-------14-11----11-14-----------------------------------------------------|
C|-------------12-----------------------------------------------------------|
G|--------------------------------------------------------------------------|
C|--------------------------------------------------------------------------|
 |                                                                          |
D|-17p14-------14p10-------10p5-----5p2-------------------------------------|
A|-------15----------10---------7-------3-----7--5--5--3--10--8-7h8p7-5-7-8-|
F|----------14----------11--------7-------2---------------------------------|
C|--------------------------------------------------------------------------|
G|--------------------------------------------------------------------------|
C|--------------------------------------------------------------------------|
 |                                                                          |
D|-----------15-14-15--------12-14------------------------------------------|
A|-------15-----------------------------------------------------------------|
F|----12----------------------------11/12-11-12/14-12-----------------------|
C|-14-----------------17--16------------------------------------------------|
G|--------------------------------------------------------------------------|
C|--------------------------------------------------------------------------|

D|--------------------------------------------------------------------------|
A|--------------------------------------------------------------------------|
F|--------------------------------------------------------------------------|
C|-5-5-5-5-5-5-5-5-7-7-7-7-7-7-7-7-8-8-8-8-8-8-8-8--------------------------|
G|-5-5-5-5-5-5-5-5-7-7-7-7-7-7-7-7-8-8-8-8-8-8-8-8--------------------------|
C|-5-5-5-5-5-5-5-5-7-7-7-7-7-7-7-7-8-8-8-8-8-8-8-8--------------------------|
 |                                                                          |
D|--------------------------------------------------------------------------|
A|--------------------------------------------------------------------------|
F|--------------------------------------------------------------------------|
C|-12-10----------------10-12-11----------------11--------------------------|
G|-------13-12-10-12-13----------13-12-10-12-13-----------------------------|
C|--------------------------------------------------------------------------|

CHORUS

VARIATION

************************************

| /   slide up
| \   slide down
| h   hammer-on
| p   pull-off
| ~   vibrato
| +   harmonic
| x   Mute note
| b   Bend
| pb  Pre-bend
| br  Bend release
| pbr Pre-bend release
| brb Bend release bend

************************************





Comments


Popular Darkest Hour tabs & chords
Convalescence Bass Tabs
Demon(S) Bass Tabs
Another Reason Tabs
Pathos 1 Tabs
Pay Phones And Pills Tabs
Sound The Surrender 1 Tabs
The Tides Intro Tabs
These Fevered Times Intro Tabs
Tunguska 2 Tabs
Your Guts My Glory Intro Tabs


Song lyrics



↑ Back to top | Tablatures and chords are parodies/interpretations of the original songs. You may use it for private study, scholarship, research or language learning purposes only
© 2014 AZChords.com Contact us | Privacy policy | DMCA | Add/correct tabs | Request tabs | Top 50 tabs