>
 >
Demons

Demons Guitar Tabs

Darkest Hour - Demons chords, tabs, tablatures, lyrics

Guitar lessons | Add/correct | Request | Top 50 tabs Artists:  A B C D E F G H I J K L M N O P Q R S T U V W X Y Z 0-9

Demons Guitar Tabs – Darkest Hour

CD, Sheet music, Poster

Do you like Demons? Share with your friends now
TabsTabs v2

DEMON(S)
As recorded by Darkest Hour
(From the 2007 Album DELIVER US)



 Words by The Singer From Darkest Hour Music by Darkest Hour
Arranged by Darkest Hour


Gtr I (C G C F A D) - 'Kris Norris'
Gtr II (C G C F A D) - 'Kris Norris'
Gtr III (C G C F A D) - 'Mike Schleibaum'

 Gtr III
                     ~~~~~~~~~~~~~~~
  E E E E E E E E    H          +E    E   E   E
|-----------------|-------------------------------*|
|-----------------|-------------------------------*|
|-----------------|-------------------------------*|
|---4---6---4---4-|-----------------------6---9---*|
|-------------6---|-/6----------(6)---9-----------*|
|-2---2---2-------|-------------------------------*|
|
|                   Gtrs I, II
| E E E E E E E E    Q  S S S S  S  S S S S S S S
|-----------------|-------------------------------*|
|-----------------|-------------------------------*|
|---3---4---3-----|-------------------------------*|
|-------------4-6-|--6----------------------------*|
|-----------------|--6----------------------------*|
|-2---2---2-------|--4--4-4-4-4--4--4-4-4-4-4-4-4-*|


  Gtrs I, II
  S S S S S S S S S   S S     S Q      Q  S S S S  S  S S   S S S S S
|-----------------------------------|---------------------------------|
|-----------------------------------|---------------------------------|
|-----------------------------------|---------------------------------|
|-------------------------------4---|--2------------------------------|
|-------------------------------4---|--2------------------------------|
|-4-4-4-4-4-4-4-4-4---4-4-----4-2---|--0--0-0-0-0--0--0-0---0-0-0-0-0-|
|
| Gtr III
|                 |-------3-------|
| H               Q       +Q      Q    H          +E    Q.
|-----------------------------------|---------------------------------|
|-----------------------------------|---------------------------------|
|-6---------------6b8r====(6)-------|-------------------6b8-----------|
|---------------------------------9-|-/6----------(6)-----------------|
|-----------------------------------|---------------------------------|
|-----------------------------------|---------------------------------|


   Q     S S S S S S S S S S S S     Q   S  S  S S S S  S  S S  S  S  S
|--------------------------------|--------------------------------------|
|--------------------------------|--------------------------------------|
|--------------------------------|--------------------------------------|
|--4-----------------------------|---6----------------------------------|
|--4-----------------------------|---6----------------------------------|
|--2-----2-2-2-2-2-2-2-2-2-2-2-2-|---4---4--4--4-4-4-4--4--4-4--4--4--4-|
|
|                ~
|  E Q       E   H                   Q   S  S  Q        E.      S  S  S
|--------------------------------|--------------------------------------|
|----------------7---------------|-/16--16-19-16-------16------16-19-16-|
|-13-6b8r========================|======================================|
|------------9-------------------|--------------------------------------|
|--------------------------------|--------------------------------------|
|--------------------------------|--------------------------------------|


   S    S S S   S   S  S  S  S S S S Q
|---------------------------------------|
|---------------------------------------|
|---------------------------------------|
|------------------------------------4--|
|------------------------------------4--|
|--4----4-4-4---4---4--4--4--4-4-4-4-2--|
|
|                            ~~
|  Q           +S   S  S  S  H
|------------------16----16-16----------|
|-19b21-------(19)----19----------------|
|---------------------------------------|
|---------------------------------------|
|---------------------------------------|
|---------------------------------------|


                                             Gtr I
   Q          S S  S S  S S  S S  S S  S S     H     H
|------------------------------------------|--------------|
|------------------------------------------|--------------|
|------------------------------------------|--------------|
|--2---------------------------------------|--/8-----9----|
|--2---------------------------------------|--------------|
|--0----------0-0--0-0--0-0--0-0--0-0--0-0-|--------------|
|
|                                            Gtr II
|  E     +E   E    E    E    E    E    E       H     H
|-18b20r(18)-------------------------------|--------------|
|------------19----------------------------|--------------|
|-----------------18---16---15-------------|--------------|
|--------------------------------16---11---|-/11----13----|
|------------------------------------------|--------------|
|------------------------------------------|--------------|


  Gtrs I, II
   |--3--|  |-3--|  |-3-| |-3-|    |--3--|  |--3--|  |--3--|  |--3--|
   Q     E  E E  E  Q   E E E E    Q     E  E  E  E  Q     E  E  E  E
|-------------------------------|-------------------------------------|
|-------------------------------|-------------------------------------|
|-------------------------------|-------------------------------------|
|--6-----6----------6---6-------|--9-----9-----------6-----6----------|
|--6-----6----------6---6-------|--6-----6-----------6-----6----------|
|--4-----4--4-4--4--4---4-4-4-4-|--4-----4--4--4--4--4-----4--4--4--4-|
|
| Gtr III
|  |--3--|  |-3--|  |-3-| |-3-|    |--3--|  |--3--|  |--3--|  |--3--|
|  E  E  E  Q    E  E E E E E E    E  E  E  E  E  E  E  E  E  E  E  E
|-------------------------------|-------------------23p19h21-23p19h21-|
|-------------------------------|-------------16-19-------------------|
|-------------------------------|----------16-------------------------|
|----------13---11-11p9-9-9p8-8-|----13-16----------------------------|
|-11-13-14----------------------|-14----------------------------------|
|-------------------------------|-------------------------------------|
|
| Gtr IV
|                                  |--3--|  |--3--|  |--3--|  |--3--|
|                                  E  E  E  E  E  E  E  E  E  E  E  E
|-------------------------------|-------------------19p16h18-19p16h18-|
|-------------------------------|-------------12-16-------------------|
|-------------------------------|----------13-------------------------|
|-------------------------------|-----9-13----------------------------|
|-------------------------------|-11----------------------------------|
|-------------------------------|-------------------------------------|


   |3| |-3-| |3| |-3-|    |--3--|  |-3--|  |3| |-3-|
   Q E E E E Q E E E E    Q     E  E E  E  Q E E E E
|----------------------|-----------------------------|
|----------------------|-----------------------------|
|----------------------|--8-----8----------8-8-------|
|--9-9-------6-6-------|--6-----6----------6-6-------|
|--7-7-7-7-7-7-7-7-7-7-|-----------7-7--7------7-7-7-|
|----------------------|-----------------------------|
|
|                         |--3--|  |-3--|
|  W                      Q     E  Q    E  H
|----------------------|-----------------------------|
|-21-------------------|-19b21r17-19---16-17---------|
|----------------------|-----------------------------|
|----------------------|-----------------------------|
|----------------------|-----------------------------|
|----------------------|-----------------------------|
|
|  W
|----------------------|-----------------------------|
|-17-------------------|-----------------------------|
|----------------------|-----------------------------|
|----------------------|-----------------------------|
|----------------------|-----------------------------|
|----------------------|-----------------------------|


  Gtrs I, II
   |---3---|     |----3----|     |---3---|     |----3----|
   Q       E     E    E    E     Q       E     E    E    E
|-------------------------------------------------------------|
|-------------------------------------------------------------|
|-------------------------------------------------------------|
|--6-------6---------------------6-------6--------------------|
|--6-------6---------------------6-------6--------------------|
|--4-------4-----4----4----4-----4-------4-----4----4----4----|
|
|  S  S  S    S  S  S    S    S  S  S  S    S  S  S    S    S
|-19-16---------19-16-----------21-16---------19-16-----------|
|-------17--------------17------------17--------------17------|
|------------16--------------16------------16--------------16-|
|-------------------------------------------------------------|
|-------------------------------------------------------------|
|-------------------------------------------------------------|
|
|  S  S  S    S  S  S    S    S  S  S  S    S  S  S    S    S
|-16-12---------16-12-----------18-12---------16-12-----------|
|-------14--------------14------------14--------------14------|
|------------13--------------13------------13--------------13-|
|-------------------------------------------------------------|
|-------------------------------------------------------------|
|-------------------------------------------------------------|


   |---3---|     |----3----|     |-----3-----|     |-----3-----|
   Q       E     E    E    E     Q           E     E     E     E
|--------------------------------------------------------------------|
|--------------------------------------------------------------------|
|--------------------------------------------------------------------|
|--9-------9---------------------6-----------6-----------------------|
|--6-------6---------------------6-----------6-----------------------|
|--4-------4-----4----4----4-----4-----------4-----4-----4-----4-----|
|
|                                |--3--|  |--3--|  |--3--|  |--3--|
|  S  S  S    S  S  S    S    S  S  S  S  S  S  S  S  S  S  S  S  S
|-19-16---------19-16-----------19-16----21-16----19-16----18-16-----|
|-------17--------------17------------17-------17-------17-------17--|
|------------16--------------16--------------------------------------|
|--------------------------------------------------------------------|
|--------------------------------------------------------------------|
|--------------------------------------------------------------------|
|
|                                |--3--|  |--3--|  |--3--|  |--3--|
|  S  S  S    S  S  S    S    S  S  S  S  S  S  S  S  S  S  S  S  S
|-16-12---------16-12-----------16-12----18-14----16-12----14-12-----|
|-------14--------------14------------14-------14-------14-------14--|
|------------13--------------13--------------------------------------|
|--------------------------------------------------------------------|
|--------------------------------------------------------------------|
|--------------------------------------------------------------------|


   |---3---|     |----3----|     |---3---|     |----3----|
   Q       E     E    E    E     Q       E     E    E    E
|-------------------------------------------------------------|
|-------------------------------------------------------------|
|-------------------------------------------------------------|
|--9-------9---------------------6-------6--------------------|
|--7-------7-----7----7----7-----7-------7-----7----7----7----|
|-------------------------------------------------------------|
|
|  S  S  S    S  S  S    S    S  S  S  S    S  S  S    S    S
|-19-16---------19-16-----------21-16---------19-16-----------|
|-------17--------------17------------17--------------17------|
|------------16--------------16------------16--------------16-|
|-------------------------------------------------------------|
|-------------------------------------------------------------|
|-------------------------------------------------------------|
|
|  S  S  S    S  S  S    S    S  S  S  S    S  S  S    S    S
|-16-12---------16-12-----------18-12---------16-12-----------|
|-------14--------------14------------14--------------14------|
|------------13--------------13------------13--------------13-|
|-------------------------------------------------------------|
|-------------------------------------------------------------|
|-------------------------------------------------------------|


   |--------3---------|        |---------3----------|       |-----3-----|     |-----3-----|
   Q       Q          Q        Q           Q        Q       Q     Q     Q     Q     Q     Q
|--------------------------------------------------------|----------------------------------------|
|--------------------------------------------------------|----------------------------------------|
|--------------------------------------------------------|----------------------------------------|
|--4-------3-------------------4-----------3-------------|--4-----3-----------4-----3-------------|
|--2-------1----------4--------2-----------1--------4----|--2-----1-----4-----2-----1-----4-------|
|---------------------2-----------------------------2----|--------------2-----------------2-------|
|
|                              |--3--|  |--3--|  |--3--|    |--3--|  |--3--|  |--3--|  |--3--|
|  S  S  S    S  S  S    S  S  S  S  S  S  S  S  E  E  E    E  E  E  E  E  E  E  E  E  E  E  E
|-21-18---------21-18---------21-18----23-18----21-18----|-------------------------18-21-18-------|
|-------19--------------19----------19-------19-------19-|----------------19----19----------19----|
|------------18------------18----------------------------|-------18----18----18-------------------|
|--------------------------------------------------------|----20----20----------------------------|
|--------------------------------------------------------|-21-------------------------------------|
|--------------------------------------------------------|----------------------------------------|
|
|                              |--3--|  |--3--|  |--3--|
|  S  S  S    S  S  S    S  S  S  S  S  S  S  S  E  E  E
|-18-14---------18-14---------18-14----19-14----18-14----|----------------------------------------|
|-------16--------------16----------16-------16-------16-|----------------------------------------|
|------------15------------15----------------------------|----------------------------------------|
|--------------------------------------------------------|----------------------------------------|
|--------------------------------------------------------|----------------------------------------|
|--------------------------------------------------------|----------------------------------------|


  Gtr I
            |-3--|    |-3-|         |-3-|     |--3---|         |-3-|    |-3-|
   Q        E  E E Q  E E E     Q   E E E Q   E    E E     Q   E E E Q  E E E
|---------------------------|--------------------------|----------------------|
|---------------------------|--------------------------|----------------------|
|---------------------------|--------------------------|----------------------|
|---------------------------|--------------------------|----------------------|
|--2--------2--2-2-2--2-2-2-|---4---4-4-4-4---4----4-4-|---6---6-6-6-6--6-6-6-|
|--0--------0--0-0-0--0-0-0-|---2---2-2-2-2---2----2-2-|---4---4-4-4-4--4-4-4-|
|
| Gtr II
|           |-3--|    |-3-|         |-3-|     |--3---|         |-3-|    |-3-|
|  Q        E  E E Q  E E E     Q   E E E Q   E    E E     Q   E E E Q  E E E
|---------------------------|--------------------------|----------------------|
|---------------------------|--------------------------|----------------------|
|--9--------9--9-9-9--9-9-9-|---6---6-6-6-6---6----6-6-|---4---4-4-4-4--4-4-4-|
|---------------------------|--------------------------|----------------------|
|--7--------7--7-7-7--7-7-7-|---4---4-4-4-4---4----4-4-|---2---2-2-2-2--2-2-2-|
|---------------------------|--------------------------|----------------------|
|
| Gtr III                     Gtr III                    Gtr III
|      >                                      >
|  ~~~~~~~~~~~~~~~~~~~~~~~~~~~~~~~~
|  H  +Q   +Q                  +H.            Q           +W
|-19-(19)-(19)--------------|-(19)-----------19b21r====|=(19)-----------------|
|---------------------------|--------------------------|----------------------|
|---------------------------|--------------------------|----------------------|
|---------------------------|--------------------------|----------------------|
|---------------------------|--------------------------|----------------------|
|---------------------------|--------------------------|----------------------|





Comments


Popular Darkest Hour tabs & chords
Legacy Bass Tabs
Oklahoma Bass Tabs
Accessible Loss Tabs
Blessed Infection Tabs
Broken Wings 2 Tabs
Demons Intro Tabs
For The Soul Of The Savior Tabs
Treason In Trust Tabs
Tunguska Tabs
With A Thousand Words To Say But One Intro Tabs


Song lyrics



↑ Back to top | Tablatures and chords are parodies/interpretations of the original songs. You may use it for private study, scholarship, research or language learning purposes only
© 2014 AZChords.com Contact us | Privacy policy | DMCA | Add/correct tabs | Request tabs | Top 50 tabs