>
 >
Demon(S)

Demon(S) Guitar Tabs

Darkest Hour - Demon(S) chords, tabs, tablatures, lyrics

Guitar lessons | Add/correct | Request | Top 50 tabs Artists:  A B C D E F G H I J K L M N O P Q R S T U V W X Y Z 0-9

Demon(S) Guitar Tabs – Darkest Hour

CD, Sheet music, Poster

Do you like Demon(S)? Share with your friends now
Bass TabsTabs

DEMONS
As recorded by Darkest Hour
(From the 2006 Album DELIVER US)



Words by The Singer From Darkest Hour, Music by Darkest Hour
Arranged by Darkest Hour and Devin Townsend
 

Gtr I (D G C F A D) - 'One of the Guitarist'
Gtr II (D G C F A D) - 'The Other Guy'
Gtr III (D G C F A D) - 'Both Guys'
Gtr IV (D G C F A D) - 'Harmony, One Guy'


  Q=160
 4/4
  Gtr I
  W             +W            W
|-------------|------------|---------------|
|-------------|------------|---------------|
|-------------|------------|---------------|
|-6-----------|-(6)--------|--2------------|
|-6-----------|-(6)--------|--2------------|
|-4-----------|-(4)--------|--0------------|
|
| Gtr II
| Q  Q  Q  Q     W           +Q   Q  Q  Q
|----------7--|-(7)--------|-(7)--------7--|
|-------------|------------|---------------|
|----8--9-----|--9---------|-(9)--8--9-----|
|-------------|------------|---------------|
|-------------|------------|---------------|
|-------------|------------|---------------|


   |3-|  |-3-|  |3-|  |3-|
   Q  E  E   Q  Q  E  E  Q    W              +W
|--------------------------|---------------|--------|
|--------------------------|---------------|--------|
|-13-13-13\-11-11-11-11\-9-|---------------|--------|
|--------------------------|--6------------|-(6)----|
|-11-11-11\--9--9--9--9\-7-|--6------------|-(6)----|
|--------------------------|--4------------|-(4)----|
|
|  Q     Q      Q     Q      +Q   Q  Q  Q     W
|--------------------------|------------7--|-(7)----|
|--------------------------|---------------|--------|
|--6------------9-----8----|-(8)--8--9-----|--9-----|
|--------9-----------------|---------------|--------|
|--------------------------|---------------|--------|
|--------------------------|---------------|--------|


                                 Gtrs I, II
                                 |3| |-3-| |3| |-3-|
   W                H     H      Q E E E E Q E E E E
|---------------|--------------|---------------------|
|---------------|--------------|---------------------|
|---------------|--------------|---------------------|
|--2------------|--/8-----9----|-6-6-------6-6-------|
|--2------------|--------------|-6-6-------6-6-------|
|--0------------|--------------|-4-4-4-4-4-4-4-4-4-4-|
|
| +Q   Q  Q  Q      H     H      W
|------------7--|--------------|---------------------|
|---------------|--------------|---------------------|
|-(9)--8--9-----|--------------|---------------------|
|---------------|-/11----13----|---------------------|
|---------------|--------------|---------------------|
|---------------|--------------|---------------------|


  |3| |-3-| |3| |-3-|   |3| |-3-| |3| |-3-|   |3| |-3-| |3| |-3-|
  Q E E E E Q E E E E   Q E E E E Q E E E E   Q E E E E Q E E E E
|---------------------|---------------------|---------------------|
|---------------------|---------------------|---------------------|
|---------------------|---------------------|-8-8-------8-8-------|
|-9-9-------6-6-------|-9-9-------6-6-------|-6-6-------6-6-------|
|-6-6-------6-6-------|-7-7-7-7-7-7-7-7-7-7-|-----7-7-7-----7-7-7-|
|-4-4-4-4-4-4-4-4-4-4-|---------------------|---------------------|


  |3| |-3-| |3| |-3-|   |3| |-3-| |3| |-3-|   |3| |-3-| |3| |-3-|
  Q E E E E Q E E E E   Q E E E E Q E E E E   Q E E E E Q E E E E
|---------------------|---------------------|---------------------|
|---------------------|---------------------|---------------------|
|---------------------|---------------------|---------------------|
|-6-6-------6-6-------|-9-9-------6-6-------|-9-9-------6-6-------|
|-6-6-------6-6-------|-6-6-------6-6-------|-7-7-7-7-7-7-7-7-7-7-|
|-4-4-4-4-4-4-4-4-4-4-|-4-4-4-4-4-4-4-4-4-4-|---------------------|


                        Gtr I
  |3| |-3-| |3| |-3-|   |3| |-3-| |3| |-3-|
  Q E E E E Q E E E E   Q E E E E Q E E E E
|---------------------|---------------------|
|---------------------|---------------------|
|-8-8-------8-8-------|---------------------|
|-6-6-------6-6-------|-6-6-------6-6-------|
|-----7-7-7-----7-7-7-|-6-6-------6-6-------|
|---------------------|-4-4-4-4-4-4-4-4-4-4-|
|
| Gtr II                Gtr II
|                       |3| |-3-| |3| |-3-|
| W                     Q E E E E Q E E E E
|---------------------|---------------------|
|---------------------|---------------------|
|---------------------|---------------------|
|---------------------|---------------------|
|---------------------|-6-6-6-6-6-6-6-6-6-6-|
|---------------------|---------------------|


  |3| |-3-| |3| |-3-|   |3| |-3-| |3| |-3-|   |3| |-3-| |3| |-3-|
  Q E E E E Q E E E E   Q E E E E Q E E E E   Q E E E E Q E E E E
|---------------------|---------------------|---------------------|
|---------------------|---------------------|---------------------|
|---------------------|---------------------|-8-8-------8-8-------|
|-9-9-------6-6-------|-9-9-------6-6-------|-6-6-------6-6-------|
|-6-6-------6-6-------|-7-7-7-7-7-7-7-7-7-7-|-----7-7-7-----7-7-7-|
|-4-4-4-4-4-4-4-4-4-4-|---------------------|---------------------|
|
| |3| |-3-| |3|   |3|   |3| |-3-| |3| |-3-|   |3| |-3-| |3| |-3-|
| Q E E E E Q Q   E E   Q E E E E Q E E E E   Q E E E E Q E E E E
|---------------------|---------------------|---------------------|
|---------------------|---------------------|---------------------|
|---------------------|---------------------|---------------------|
|---------------------|---------------------|-4-4-4-4-4-2-2-2-2-2-|
|-6-6-6-6-6-6-4---2-4-|-2-2-2-2-2-1-1-1-1-1-|---------------------|
|---------------------|---------------------|---------------------|


  |3| |-3-| |3| |-3-|   |3| |-3-| |3| |-3-|
  Q E E E E Q E E E E   Q E E E E Q E E E E
|---------------------|---------------------|
|---------------------|---------------------|
|---------------------|---------------------|
|-6-6-------6-6-------|-9-9-------6-6-------|
|-6-6-------6-6-------|-6-6-------6-6-------|
|-4-4-4-4-4-4-4-4-4-4-|-4-4-4-4-4-4-4-4-4-4-|
|
| |3| |-3-| |3| |-3-|   |3| |-3-| |3|   |3|
| Q E E E E Q E E E E   Q E E E E Q Q   E E
|---------------------|---------------------|
|---------------------|---------------------|
|---------------------|---------------------|
|---------------------|---------------------|
|-6-6-6-6-6-6-6-6-6-6-|-6-6-6-6-6-6-4---2-4-|
|---------------------|---------------------|


  |3| |-3-| |3| |-3-|   |3| |-3-| |3| |-3-|
  Q E E E E Q E E E E   Q E E E E Q E E E E
|---------------------|---------------------|
|---------------------|---------------------|
|---------------------|-8-8-------8-8-------|
|-9-9-------6-6-------|-6-6-------6-6-------|
|-7-7-7-7-7-7-7-7-7-7-|-----7-7-7-----7-7-7-|
|---------------------|---------------------|
|
| |3| |-3-| |3| |-3-|   |3| |-3-| |3| |-3-|
| Q E E E E Q E E E E   Q E E E E Q E E E E
|---------------------|---------------------|
|---------------------|---------------------|
|---------------------|---------------------|
|---------------------|-4-4-4-4-4-2-2-2-2-2-|
|-2-2-2-2-2-1-1-1-1-1-|---------------------|
|---------------------|---------------------|


  Gtrs I, II
  |-3-| |-3-| |-3-| |-3-|   |-3-| |-3-| |-3-| |-3-|
  E E E E E E E E E E E E   E E E E E E E E E E E E
|-------------------------|-------------------------|
|-------------------------|-------------------------|
|-------------------------|-------------------------|
|-------8---9-------------|-------8---6-------------|
|---6---------------------|---6---------------------|
|-4---4---4---4-4-4-4-4-4-|-4---4---4---4-4-4-4-4-4-|


  |-3-| |-3-| |-3-| |-3-|   |-3-| |-3-| |-3-| |-3-|
  E E E E E E E E E E E E   E E E E E E E E E E E E
|-------------------------|-------------------------|
|-------------------------|-------------------------|
|-------------------------|-------------------------|
|-------8---9-------------|-------8---6-------------|
|---7---------------------|---7---------7-7-7-6-6-6-|
|-0---0---0---0-0-0-0-0-0-|-0---0---0---------------|
|
| |-3-| |-3-| |-3-| |-3-|   |-3-| |-3-| |-3-| |-3-|
| E E E E E E E E E E E E   E E E E E E E E E E E E
|-------------------------|-------------------------|
|-------------------------|-------------------------|
|-------------------------|-------------------------|
|-------8---9-------------|-------8---6-------------|
|---7---------------------|---7---------4-4-4-2-2-2-|
|-0---0---0---0-0-0-0-0-0-|-0---0---0---------------|


  Gtrs I, II
  |-3-| |-3-| |-3-| |-3-|   |-3-| |-3-| |-3-| |-3-|
  E E E E E E E E E E E E   E E E E E E E E E E E E
|-------------------------|-------------------------|
|-------------------------|-------------------------|
|-------------------------|-------------------------|
|-------8---9-------------|-------8---6-------------|
|---6---------------------|---6---------------------|
|-4---4---4---4-4-4-4-4-4-|-4---4---4---4-4-4-4-4-4-|


  |-3-| |-3-| |-3-| |-3-|   |-3-| |-3-| |-3-| |-3-|
  E E E E E E E E E E E E   E E E E E E E E E E E E
|-------------------------|--------------------------|
|-------------------------|--------------------------|
|-------------------------|--------------------------|
|-------8---9-------------|-------8---6--------------|
|---7---------------------|---7---------7-7-7-6-6-6--|
|-0---0---0---0-0-0-0-0-0-|-0---0---0----------------|
|
| Gtr II
| |-3-| |-3-| |-3-| |-3-|   |-3-| |-3-| |-3-| |-3-|
| E E E E E E E E E E E E   E E E E E E E E E E E E
|-------------------------|--------------------------|
|-------------------------|--------------------------|
|-------------------------|--------------------------|
|-------8---9-------------|-------8---6--------------|
|---7---------------------|---7---------4-4-4-2-2-2--|
|-0---0---0---0-0-0-0-0-0-|-0---0---0----------------|


  Gtr II
  Q  Q  Q  Q     W              +Q   Q  Q  Q
|----------7--|-(7)-----------|-(7)--------7--|
|-------------|---------------|---------------|
|----8--9-----|--9------------|-(9)--8--9-----|
|-------------|---------------|---------------|
|-------------|---------------|---------------|
|-------------|---------------|---------------|
|
| Gtr I
|                      |-3-|
| W             +H     Q Q Q     W
|-------------|---------------|---------------|
|-------------|---------------|---------------|
|-------------|---------------|---------------|
|-6-----------|-(6)----6-4-2--|--2------------|
|-6-----------|-(6)----6-4-2--|--2------------|
|-4-----------|-(4)----4-2-0--|--0------------|


  Gtr I
                 |3| |-3-| |3| |-3-|
    H     H      Q E E E E Q E E E E
|--------------|---------------------|
|--------------|---------------------|
|--------------|---------------------|
|--/8-----9----|-6-6-------6-6-------|
|--------------|-6-6-------6-6-------|
|--------------|-4-4-4-4-4-4-4-4-4-4-|
|
| Gtr II
|                |3| |-3-| |3| |-3-|
|   H     H      Q E E E E Q E E E E
|--------------|---------------------|
|--------------|---------------------|
|--------------|---------------------|
|-/11----13----|---------------------|
|--------------|-6-6-6-6-6-6-6-6-6-6-|
|--------------|---------------------|


  |3| |-3-| |3| |-3-|   |3| |-3-| |3| |-3-|   |3| |-3-| |3| |-3-|
  Q E E E E Q E E E E   Q E E E E Q E E E E   Q E E E E Q E E E E
|---------------------|---------------------|---------------------|
|---------------------|---------------------|---------------------|
|---------------------|---------------------|-8-8-------8-8-------|
|-9-9-------6-6-------|-9-9-------6-6-------|-6-6-------6-6-------|
|-6-6-------6-6-------|-7-7-7-7-7-7-7-7-7-7-|-----7-7-7-----7-7-7-|
|-4-4-4-4-4-4-4-4-4-4-|---------------------|---------------------|
|
| |3| |-3-| |3|   |3|   |3| |-3-| |3| |-3-|   |3| |-3-| |3| |-3-|
| Q E E E E Q Q   E E   Q E E E E Q E E E E   Q E E E E Q E E E E
|---------------------|---------------------|---------------------|
|---------------------|---------------------|---------------------|
|---------------------|---------------------|---------------------|
|---------------------|---------------------|-4-4-4-4-4-2-2-2-2-2-|
|-6-6-6-6-6-6-4---2-4-|-2-2-2-2-2-1-1-1-1-1-|---------------------|
|---------------------|---------------------|---------------------|


  |3| |-3-| |3| |-3-|   |3| |-3-| |3| |-3-|
  Q E E E E Q E E E E   Q E E E E Q E E E E
|---------------------|---------------------|
|---------------------|---------------------|
|---------------------|---------------------|
|-6-6-------6-6-------|-9-9-------6-6-------|
|-6-6-------6-6-------|-6-6-------6-6-------|
|-4-4-4-4-4-4-4-4-4-4-|-4-4-4-4-4-4-4-4-4-4-|
|
| |3| |-3-| |3| |-3-|   |3| |-3-| |3|   |3|
| Q E E E E Q E E E E   Q E E E E Q Q   E E
|---------------------|---------------------|
|---------------------|---------------------|
|---------------------|---------------------|
|---------------------|---------------------|
|-6-6-6-6-6-6-6-6-6-6-|-6-6-6-6-6-6-4---2-4-|
|---------------------|---------------------|


  |3| |-3-| |3| |-3-|   |-3-| |-3-|
  Q E E E E Q E E E E   Q Q Q Q Q Q
|---------------------|-------------|
|---------------------|-------------|
|---------------------|-------------|
|-9-9-------6-6-------|-4-3---4-3---|
|-7-7-7-7-7-7-7-7-7-7-|-2-1-4-2-1-4-|
|---------------------|-----2-----2-|
|
| |3| |-3-| |3| |-3-|   |-3-| |-3-|
| Q E E E E Q E E E E   Q Q Q Q Q Q
|---------------------|-------------|
|---------------------|-------------|
|---------------------|-------------|
|---------------------|-4-3---4-3---|
|-2-2-2-2-2-1-1-1-1-1-|-2-1-4-2-1-4-|
|---------------------|-----2-----2-|


  Gtr I
     |-3-|    |-3-|      |-3-|    |-3-|      |-3-|    |-3-|
  Q  E E E Q  E E E   Q  E E E Q  E E E   Q  E E E Q  E E E
|-------------------|-------------------|--------------------|
|-------------------|-------------------|--------------------|
|-------------------|-------------------|--------------------|
|-------------------|-------------------|--------------------|
|-2--2-2-2-2--2-2-2-|-4--4-4-4-4--4-4-4-|-6--6-6-6-6--6-6-6--|
|-0--0-0-0-0--0-0-0-|-2--2-2-2-2--2-2-2-|-4--4-4-4-4--4-4-4--|
|
| Gtr II
|    |-3-|    |-3-|      |-3-|    |-3-|      |-3-|    |-3-|
| Q  E E E Q  E E E   Q  E E E Q  E E E   Q  E E E Q  E E E
|-------------------|-------------------|--------------------|
|-------------------|-------------------|--------------------|
|-9--9-9-9-9--9-9-9-|-6--6-6-6-6--6-6-6-|-8--8-8-8-8--8-8-8--|
|-------------------|-------------------|--------------------|
|-7--7-7-7-7--7-7-7-|-4--4-4-4-4--4-4-4-|-6--6-6-6-6--6-6-6--|
|-------------------|-------------------|--------------------|


       |--3--|      |--3--|      |-3-|    |-3-|      |-3-|    |-3-|
   Q   E  E  E  Q   E  E  E   Q  E E E Q  E E E   Q  E E E Q  E E E
|---------------------------|-------------------|-------------------|
|---------------------------|-------------------|-------------------|
|---------------------------|-------------------|-------------------|
|---------------------------|-------------------|-------------------|
|--9---9--9--9--9---9--9--9-|-2--2-2-2-2--2-2-2-|-4--4-4-4-4--4-4-4-|
|--7---7--7--7--7---7--7--7-|-0--0-0-0-0--0-0-0-|-2--2-2-2-2--2-2-2-|
|
|      |--3--|      |--3--|      |-3-|    |-3-|      |-3-|    |-3-|
|  Q   E  E  E  Q   E  E  E   Q  E E E Q  E E E   Q  E E E Q  E E E
|---------------------------|-------------------|-------------------|
|---------------------------|-------------------|-------------------|
|-11--11-11-11-11--11-11-11-|-9--9-9-9-9--9-9-9-|-6--6-6-6-6--6-6-6-|
|---------------------------|-------------------|-------------------|
|--9---9--9--9--9---9--9--9-|-7--7-7-7-7--7-7-7-|-4--4-4-4-4--4-4-4-|
|---------------------------|-------------------|-------------------|


     |-3-|    |-3-|        |-3-|      |-3-|         |-3-|      |-3-|
  Q  E E E Q  E E E    Q   E E E  Q   E E E     Q   E E E Q    E E E
|-------------------|-----------------------|------------------------|
|-------------------|-----------------------|------------------------|
|-------------------|-----------------------|------------------------|
|-------------------|-----------------------|------------------------|
|-9--9-9-9-9--9-9-9-|--8---8-8-8--8---8-8-8-|---2---2-2-2-2----2-2-2-|
|-7--7-7-7-7--7-7-7-|--6---6-6-6--6---6-6-6-|---0---0-0-0-0----0-0-0-|
|
|                                                              ~
|    |-3-|    |-3-|
| Q  E E E Q  E E E    Q   Q      Q   Q        +Q   Q     S E. Q
|-------------------|-----------------------|------------------------|
|-------------------|-----------------------|-------7-----7-9--7-----|
|-8--8-8-8-8--8-8-8-|-15--13-----15--16-----|-(16)-------------------|
|-------------------|-----------------------|------------------------|
|-6--6-6-6-6--6-6-6-|-13--11-----13--14-----|-(14)-------------------|
|-------------------|-----------------------|------------------------|


       |-3-|      |-3-|        |-3-|      |-3-|      |-3-|    |-3-|
   Q   E E E Q    E E E    Q   E E E Q    E E E   Q  E E E Q  E E E
|-----------------------|-----------------------|-------------------|
|-----------------------|-----------------------|-------------------|
|-----------------------|-----------------------|-------------------|
|-----------------------|-----------------------|-------------------|
|--4---4-4-4-4----4-4-4-|--6---6-6-6-6----6-6-6-|-9--9-9-9-9--9-9-9-|
|--2---2-2-2-2----2-2-2-|--4---4-4-4-4----4-4-4-|-7--7-7-7-7--7-7-7-|
|
|  ~~~            ~~~~~~~~~~~~                             ~
| +Q   Q     S E. Q       +Q   Q     S E. Q       H        H
|-----------------------|-----------------------|-------------------|
|-(7)--7-----7-9--7-----|-(7)--7-----7-9--7-----|-------------------|
|-----------------------|-----------------------|-9--------8--------|
|-----------------------|-----------------------|-------------------|
|-----------------------|-----------------------|-------------------|
|-----------------------|-----------------------|-------------------|


        |-3-|      |-3-|        |-3-|      |-3-|        |-3-|      |-3-|
   Q    E E E Q    E E E    Q   E E E Q    E E E    Q   E E E Q    E E E
|------------------------|-----------------------|--------------------------|
|------------------------|-----------------------|--------------------------|
|------------------------|-----------------------|--------------------------|
|------------------------|-----------------------|--------------------------|
|--2----2-2-2-2----2-2-2-|--4---4-4-4-4----4-4-4-|--9---9-9-9-9----9-9-9----|
|--0----0-0-0-0----0-0-0-|--2---2-2-2-2----2-2-2-|--7---7-7-7-7----7-7-7----|
|
| +Q    Q     S E. Q       +Q   Q     S E. Q       +Q   Q     S E. Q
|------------------------|-----------------------|--------------------------|
|------------------------|-----------------------|--------------------------|
|-(8)--/8-----8-9--8-----|-(8)--6-----6-8--6-----|-(6)--4-----4-6--4--------|
|------------------------|-----------------------|--------------------------|
|------------------------|-----------------------|--------------------------|
|------------------------|-----------------------|--------------------------|


                      Gtrs I, II
     |-3-|    |-3-|   |-3-| |-3-| |-3-| |-3-|
  Q  E E E Q  E E E   E E E E E E E E E E E E
|-------------------|-------------------------|
|-------------------|-------------------------|
|-------------------|-------------------------|
|-------------------|-------8---9-------------|
|-9--9-9-9-9--9-9-9-|---6---------------------|
|-6--6-6-6-6--6-6-6-|-4---4---4---4-4-4-4-4-4-|
|
| Q  Q     Q  Q       W
|-------------------|-------------------------|
|-------------------|-------------------------|
|-------------------|-------------------------|
|-8--6-----8--------|-------------------------|
|-------------9-----|-------------------------|
|-------------------|-------------------------|


  |-3-| |-3-| |-3-| |-3-|   |-3-| |-3-| |-3-| |-3-|
  E E E E E E E E E E E E   E E E E E E E E E E E E
|-------------------------|-------------------------|
|-------------------------|-------------------------|
|-------------------------|-------------------------|
|-------8---9-------------|-------8---9-------------|
|---6---------------------|---6---------------------|
|-4---4---4---4-4-4-4-4-4-|-4---4---4---4-4-4-4-4-4-|


  Gtrs I, II
  |-3-| |-3-| |-3-| |-3-|    |-3-|  |-3-|  |-3-| |-3-|
  E E E E E E E E E E E E    E E E  E E E  E E E E E E
|-------------------------|----------------------------|
|-------------------------|----------------------------|
|-------------------------|----------------------------|
|-------8---6-------------|-11-------------------------|
|---6---------------------|--------14-----13-----9-----|
|-4---4---4---4-4-4-4-4-4-|----0-0----0-0----0-0---0-0-|
|
|                           Gtr II
|                                                ~
|                            |-3-|  |-3-|  |-3-|
| W                          E E E  E E E  E E E Q
|-------------------------|----------------------------|
|-------------------------|----------------------------|
|-------------------------|----------------------------|
|-------------------------|----------------------------|
|-------------------------|---------7------6-7---6-----|
|-------------------------|--0-0-0----0-0------0-------|


   |-3-|  |-3-|  |-3--|           |-3-|  |-3-|  |-3-| |-3-|
   E E E  E E E  E  E E  Q        E E E  E E E  E E E E E E
|------------------------------|----------------------------|
|------------------------------|----------------------------|
|-----------------------11-----|----------------------------|
|-11---------------------------|-11-------------------------|
|--------14-----13-14----------|--------14-----13-----9-----|
|----0-0----0-0-------0--------|----0-0----0-0----0-0---0-0-|
|
| Gtr II
|                                                     ~
|  |-3-|  |-3-|  |-3--|  |-3-|    |-3-|  |-3-|  |-3-|
|  E E E  E E E  E  E E  E E E    E E E  E E E  E E E Q
|------------------------------|----------------------------|
|------------------------------|----------------------------|
|------------------------------|----------------------------|
|------------------------------|----------------------------|
|---------7------6--7----6-7---|---------7------6-7---6-----|
|--0-0-0----0-0-------0------0-|--0-0-0----0-0------0-------|


                Gtr I
  |-3-| |-3-|   |-3-|  |--3--| |-3-| |-3-|
  Q Q Q Q Q Q   E E E  E   E E E E E E E E
|-------------|----------------------------|
|-------------|----------------------------|
|-------------|----------------------------|
|-4-3---4-3---|--------8-----9-------------|
|-2-1-4-2-1-4-|---6------------------------|
|-----2-----2-|-4---4------4---4-4-4-4-4-4-|
|
|               Gtr II
| |-3-| |-3-|
| Q Q Q Q Q Q   Q     +H
|-------------|----------------------------|
|-------------|----------------------------|
|-------------|----------------------------|
|-4-3---4-3---|----------------------------|
|-2-1-4-2-1-4-|-6-----(6)\-----------------|
|-----2-----2-|-4-----(4)\-----------------|


  |-3-|  |--3--| |-3-| |-3-|   |-3-|  |--3--| |-3-| |-3-|
  E E E  E   E E E E E E E E   E E E  E   E E E E E E E E
|----------------------------|----------------------------|
|----------------------------|----------------------------|
|----------------------------|----------------------------|
|--------8-----9-------------|--------8-----9-------------|
|---6------------------------|---6------------------------|
|-4---4------4---4-4-4-4-4-4-|-4---4------4---4-4-4-4-4-4-|
|
| Q     +H                     Q     +H
|----------------------------|----------------------------|
|----------------------------|----------------------------|
|----------------------------|----------------------------|
|----------------------------|----------------------------|
|-6-----(6)\-----------------|-6-----(6)\-----------------|
|-4-----(4)\-----------------|-4-----(4)\-----------------|


  |-3-| |-3-| |-3-| |-3-|    |-3-|  |-3-|  |-3-| |-3-|
  E E E E E E E E E E E E    E E E  E E E  E E E E E E
|-------------------------|----------------------------|
|-------------------------|----------------------------|
|-------------------------|----------------------------|
|-------8---6-------------|-11-------------------------|
|---6---------------------|--------14-----13-----9-----|
|-4---4---4---2-2-2-2-2-2-|----0-0----0-0----0-0---0-0-|
|
|                                                ~
|             |-3-| |-3-|    |-3-|  |-3-|  |-3-|
| H           E E E E E E    E E E  E E E  E E E Q
|-------------------------|----------------------------|
|-------------------------|----------------------------|
|-------------------------|----------------------------|
|-6-----------------------|----------------------------|
|-6-----------------------|---------7------6-7---6-----|
|-4-----------2-2-2-2-2-2-|--0-0-0----0-0------0-------|


   |-3-|  |-3-|  |-3--|           |-3-|  |-3-|  |-3-| |-3-|
   E E E  E E E  E  E E  Q        E E E  E E E  E E E E E E
|------------------------------|----------------------------|
|------------------------------|----------------------------|
|-----------------------11-----|----------------------------|
|-11---------------------------|-11-------------------------|
|--------14-----13-14----------|--------14-----13-----9-----|
|----0-0----0-0-------0--------|----0-0----0-0----0-0---0-0-|
|
|                                                     ~
|  |-3-|  |-3-|  |-3--|  |-3-|    |-3-|  |-3-|  |-3-|
|  E E E  E E E  E  E E  E E E    E E E  E E E  E E E Q
|------------------------------|----------------------------|
|------------------------------|----------------------------|
|------------------------------|----------------------------|
|------------------------------|----------------------------|
|---------7------6--7----6-7---|---------7------6-7---6-----|
|--0-0-0----0-0-------0------0-|--0-0-0----0-0------0-------|


  |-3-| |-3-|      |-3-|    |-3-|      |-3-|    |-3-|
  Q Q Q Q Q Q   Q  E E E Q  E E E   Q  E E E Q  E E E
|-------------|-------------------|-------------------|
|-------------|-------------------|-------------------|
|-------------|-------------------|-------------------|
|-4-3---4-3---|-------------------|-------------------|
|-2-1-4-2-1-4-|-2--2-2-2-2--2-2-2-|-4--4-4-4-4--4-4-4-|
|-----2-----2-|-0--0-0-0-0--0-0-0-|-2--2-2-2-2--2-2-2-|
|
| |-3-| |-3-|      |-3-|    |-3-|      |-3-|    |-3-|
| Q Q Q Q Q Q   Q  E E E Q  E E E   Q  E E E Q  E E E
|-------------|-------------------|-------------------|
|-------------|-------------------|-------------------|
|-------8-6---|-9--9-9-9-9--9-9-9-|-6--6-6-6-6--6-6-6-|
|-4-3-------8-|-------------------|-------------------|
|-2-1-4-6-4---|-7--7-7-7-7--7-7-7-|-4--4-4-4-4--4-4-4-|
|-----2-----6-|-------------------|-------------------|


     |-3-|    |-3-|        |--3--|      |--3--|      |-3-|    |-3-|
  Q  E E E Q  E E E    Q   E  E  E  Q   E  E  E   Q  E E E Q  E E E
|-------------------|---------------------------|-------------------|
|-------------------|---------------------------|-------------------|
|-------------------|---------------------------|-------------------|
|-------------------|---------------------------|-------------------|
|-6--6-6-6-6--6-6-6-|--9---9--9--9--9---9--9--9-|-2--2-2-2-2--2-2-2-|
|-4--4-4-4-4--4-4-4-|--7---7--7--7--7---7--7--7-|-0--0-0-0-0--0-0-0-|
|
|    |-3-|    |-3-|        |--3--|      |--3--|      |-3-|    |-3-|
| Q  E E E Q  E E E    Q   E  E  E  Q   E  E  E   Q  E E E Q  E E E
|-------------------|---------------------------|-------------------|
|-------------------|---------------------------|-------------------|
|-8--8-8-8-8--8-8-8-|-11--11-11-11-11--11-11-11-|-9--9-9-9-9--9-9-9-|
|-------------------|---------------------------|-------------------|
|-6--6-6-6-6--6-6-6-|--9---9--9--9--9---9--9--9-|-7--7-7-7-7--7-7-7-|
|-------------------|---------------------------|-------------------|


     |-3-|    |-3-|      |-3-|    |-3-|        |-3-|      |-3-|
  Q  E E E Q  E E E   Q  E E E Q  E E E    Q   E E E  Q   E E E
|-------------------|-------------------|-----------------------|
|-------------------|-------------------|-----------------------|
|-------------------|-------------------|-----------------------|
|-------------------|-------------------|-----------------------|
|-4--4-4-4-4--4-4-4-|-9--9-9-9-9--9-9-9-|--9---9-9-9--9---9-9-9-|
|-2--2-2-2-2--2-2-2-|-7--7-7-7-7--7-7-7-|--6---6-6-6--6---6-6-6-|
|
|    |-3-|    |-3-|      |-3-|    |-3-|
| Q  E E E Q  E E E   Q  E E E Q  E E E    Q   Q      Q   Q
|-------------------|-------------------|-----------------------|
|-------------------|-------------------|-----------------------|
|-6--6-6-6-6--6-6-6-|-8--8-8-8-8--8-8-8-|-15--13-----15--16-----|
|-------------------|-------------------|-----------------------|
|-4--4-4-4-4--4-4-4-|-6--6-6-6-6--6-6-6-|-13--11-----13--14-----|
|-------------------|-------------------|-----------------------|


 4/4
        |-3-|      |-3-|        |-3-|      |-3-|        |-3-|      |-3-|
    Q   E E E Q    E E E    Q   E E E Q    E E E    Q   E E E Q    E E E
|------------------------|-----------------------|-----------------------|
|------------------------|-----------------------|-----------------------|
|------------------------|-----------------------|-----------------------|
|------------------------|-----------------------|-----------------------|
|---2---2-2-2-2----2-2-2-|--4---4-4-4-4----4-4-4-|--6---6-6-6-6----6-6-6-|
|---0---0-0-0-0----0-0-0-|--2---2-2-2-2----2-2-2-|--4---4-4-4-4----4-4-4-|
|
|                  ~~~~~~~~~~~~            ~~~~~~~~~~~~
|  +Q   Q     S E. Q       +Q   Q     S E. Q       +Q   Q     S E. Q
|------------------------|-----------------------|-----------------------|
|-------7-----7-9--7-----|-(7)--7-----7-9--7-----|-(7)--7-----7-9--7-----|
|-(16)-------------------|-----------------------|-----------------------|
|------------------------|-----------------------|-----------------------|
|-(14)-------------------|-----------------------|-----------------------|
|------------------------|-----------------------|-----------------------|


     |-3-|    |-3-|         |-3-|      |-3-|        |-3-|      |-3-|
  Q  E E E Q  E E E    Q    E E E Q    E E E    Q   E E E Q    E E E
|-------------------|------------------------|-----------------------|
|-------------------|------------------------|-----------------------|
|-------------------|------------------------|-----------------------|
|-------------------|------------------------|-----------------------|
|-9--9-9-9-9--9-9-9-|--2----2-2-2-2----2-2-2-|--4---4-4-4-4----4-4-4-|
|-7--7-7-7-7--7-7-7-|--0----0-0-0-0----0-0-0-|--2---2-2-2-2----2-2-2-|
|
|          ~~~~~~~~~~~~~~~
| H        H          +Q    Q     S E. Q       +Q   Q     S E. Q
|-------------------|------------------------|-----------------------|
|-------------------|------------------------|-----------------------|
|-9--------8--------|-(8)--/8-----8-9--8-----|-(8)--6-----6-8--6-----|
|-------------------|------------------------|-----------------------|
|-------------------|------------------------|-----------------------|
|-------------------|------------------------|-----------------------|


       |-3-|      |-3-|      |-3-|    |-3--|
   Q   E E E Q    E E E   Q  E E E Q  E  E E   H     H
|-----------------------|--------------------|------------|
|-----------------------|--------------------|------------|
|-----------------------|--------------------|------------|
|-----------------------|--------------------|------/9----|
|--9---9-9-9-9----9-9-9-|-9--9-9-9-9--9--9-9-|-2----------|
|--7---7-7-7-7----7-7-7-|-6--6-6-6-6--6--6-6-|-0----------|
|
| +Q   Q     S E. Q       Q  Q     Q  Q        W
|-----------------------|--------------------|------------|
|-----------------------|--------------------|------------|
|-(6)--4-----4-6--4-----|--------------------|------------|
|-----------------------|-8--6-----8---------|------------|
|-----------------------|-------------9\-----|-2----------|
|-----------------------|--------------------|-0----------|


  W          E E E E E E E E   E E E E E E E E   E E E E E E E E
|----------|-----------------|-----------------|-----------------|
|----------|-----------------|-----------------|-----------------|
|----------|-------4---------|-----------------|-------4---3-1---|
|-8--------|-----------8-6---|---------------6-|---2-----------2-|
|----------|---6-----------6-|---4---6---7-----|-----------------|
|----------|-4---4---4-------|-4---4---4---4---|-0---0---0-------|
|
| W          Q   Q   H         E E E E E E E E   E E E E E E E E
|----------|-----------------|-----------------|-----------------|
|----------|-----------------|-----------------|-----------------|
|----------|-----------------|-----------------|-------4---3-1---|
|----------|-----------------|---------------6-|---2-----------2-|
|-4--------|-6---------------|---4---6---7-----|-----------------|
|-2--------|-4---------------|-4---4---4---4---|-0---0---0-------|


  E E E E E E E E   E E E E E E E E   E E E E E E E E   E E E E E E E E
|-----------------|-----------------|-----------------|-----------------|
|-----------------|-----------------|-----------------|-----------------|
|---3---4---3-----|-------4---------|-----------------|-------1---------|
|-------------4-6-|-----------4-----|-----------------|---2-------4-2---|
|-----------------|---6---------7-6-|-----------4---7-|---------------4-|
|-2---2---2-------|-4---4---4-------|-4-6-4-7-4---4---|-0---0---0-------|
|
| E E E E E E E E   E E E E E E E E   E E E E E E E E   E E E E E E E E
|-----------------|-----------------|-----------------|-----------------|
|-----------------|-----------------|-----------------|-----------------|
|---3---4---3-----|-------4---------|-----------------|-------4---3-1---|
|-------------4-6-|-----------8-6---|---------------6-|---2-----------2-|
|-----------------|---6-----------6-|---4---6---7-----|-----------------|
|-2---2---2-------|-4---4---4-------|-4---4---4---4---|-0---0---0-------|


                    Gtr III
                     ~~~~~~~~~~~~~~~
  E E E E E E E E    H          +E    E   E   E
|-----------------|-------------------------------*|
|-----------------|-------------------------------*|
|-----------------|-------------------------------*|
|---4---6---4---4-|-----------------------6---9---*|
|-------------6---|-/6----------(6)---9-----------*|
|-2---2---2-------|-------------------------------*|
|
|                   Gtrs I, II
| E E E E E E E E    Q  S S S S  S  S S S S S S S
|-----------------|-------------------------------*|
|-----------------|-------------------------------*|
|---3---4---3-----|-------------------------------*|
|-------------4-6-|--6----------------------------*|
|-----------------|--6----------------------------*|
|-2---2---2-------|--4--4-4-4-4--4--4-4-4-4-4-4-4-*|


  Gtrs I, II
  S S S S S S S S S   S S     S Q      Q  S S S S  S  S S   S S S S S
|-----------------------------------|---------------------------------|
|-----------------------------------|---------------------------------|
|-----------------------------------|---------------------------------|
|-------------------------------4---|--2------------------------------|
|-------------------------------4---|--2------------------------------|
|-4-4-4-4-4-4-4-4-4---4-4-----4-2---|--0--0-0-0-0--0--0-0---0-0-0-0-0-|
|
| Gtr III
|                 |-------3-------|
| H               Q       +Q      Q    H          +E    Q.
|-----------------------------------|---------------------------------|
|-----------------------------------|---------------------------------|
|-6---------------6b8r====(6)-------|-------------------6b8-----------|
|---------------------------------9-|-/6----------(6)-----------------|
|-----------------------------------|---------------------------------|
|-----------------------------------|---------------------------------|


   Q     S S S S S S S S S S S S     Q   S  S  S S S S  S  S S  S  S  S
|--------------------------------|--------------------------------------|
|--------------------------------|--------------------------------------|
|--------------------------------|--------------------------------------|
|--4-----------------------------|---6----------------------------------|
|--4-----------------------------|---6----------------------------------|
|--2-----2-2-2-2-2-2-2-2-2-2-2-2-|---4---4--4--4-4-4-4--4--4-4--4--4--4-|
|
|                ~
|  E Q       E   H                   Q   S  S  Q        E.      S  S  S
|--------------------------------|--------------------------------------|
|----------------7---------------|-/16--16-19-16-------16------16-19-16-|
|-13-6b8r========================|======================================|
|------------9-------------------|--------------------------------------|
|--------------------------------|--------------------------------------|
|--------------------------------|--------------------------------------|


   S    S S S   S   S  S  S  S S S S Q
|---------------------------------------|
|---------------------------------------|
|---------------------------------------|
|------------------------------------4--|
|------------------------------------4--|
|--4----4-4-4---4---4--4--4--4-4-4-4-2--|
|
|                            ~~
|  Q           +S   S  S  S  H
|------------------16----16-16----------|
|-19b21-------(19)----19----------------|
|---------------------------------------|
|---------------------------------------|
|---------------------------------------|
|---------------------------------------|


                                             Gtr I
   Q          S S  S S  S S  S S  S S  S S     H     H
|------------------------------------------|--------------|
|------------------------------------------|--------------|
|------------------------------------------|--------------|
|--2---------------------------------------|--/8-----9----|
|--2---------------------------------------|--------------|
|--0----------0-0--0-0--0-0--0-0--0-0--0-0-|--------------|
|
|                                            Gtr II
|  E     +E   E    E    E    E    E    E       H     H
|-18b20r(18)-------------------------------|--------------|
|------------19----------------------------|--------------|
|-----------------18---16---15-------------|--------------|
|--------------------------------16---11---|-/11----13----|
|------------------------------------------|--------------|
|------------------------------------------|--------------|


  Gtrs I, II
   |--3--|  |-3--|  |-3-| |-3-|    |--3--|  |--3--|  |--3--|  |--3--|
   Q     E  E E  E  Q   E E E E    Q     E  E  E  E  Q     E  E  E  E
|-------------------------------|-------------------------------------|
|-------------------------------|-------------------------------------|
|-------------------------------|-------------------------------------|
|--6-----6----------6---6-------|--9-----9-----------6-----6----------|
|--6-----6----------6---6-------|--6-----6-----------6-----6----------|
|--4-----4--4-4--4--4---4-4-4-4-|--4-----4--4--4--4--4-----4--4--4--4-|
|
| Gtr III
|  |--3--|  |-3--|  |-3-| |-3-|    |--3--|  |--3--|  |--3--|  |--3--|
|  E  E  E  Q    E  E E E E E E    E  E  E  E  E  E  E  E  E  E  E  E
|-------------------------------|-------------------23p19h21-23p19h21-|
|-------------------------------|-------------16-19-------------------|
|-------------------------------|----------16-------------------------|
|----------13---11-11p9-9-9p8-8-|----13-16----------------------------|
|-11-13-14----------------------|-14----------------------------------|
|-------------------------------|-------------------------------------|
|
| Gtr IV
|                                  |--3--|  |--3--|  |--3--|  |--3--|
|                                  E  E  E  E  E  E  E  E  E  E  E  E
|-------------------------------|-------------------19p16h18-19p16h18-|
|-------------------------------|-------------12-16-------------------|
|-------------------------------|----------13-------------------------|
|-------------------------------|-----9-13----------------------------|
|-------------------------------|-11----------------------------------|
|-------------------------------|-------------------------------------|


   |3| |-3-| |3| |-3-|    |--3--|  |-3--|  |3| |-3-|
   Q E E E E Q E E E E    Q     E  E E  E  Q E E E E
|----------------------|-----------------------------|
|----------------------|-----------------------------|
|----------------------|--8-----8----------8-8-------|
|--9-9-------6-6-------|--6-----6----------6-6-------|
|--7-7-7-7-7-7-7-7-7-7-|-----------7-7--7------7-7-7-|
|----------------------|-----------------------------|
|
|                         |--3--|  |-3--|
|  W                      Q     E  Q    E  H
|----------------------|-----------------------------|
|-21-------------------|-19b21r17-19---16-17---------|
|----------------------|-----------------------------|
|----------------------|-----------------------------|
|----------------------|-----------------------------|
|----------------------|-----------------------------|
|
|  W
|----------------------|-----------------------------|
|-17-------------------|-----------------------------|
|----------------------|-----------------------------|
|----------------------|-----------------------------|
|----------------------|-----------------------------|
|----------------------|-----------------------------|


  Gtrs I, II
   |---3---|     |----3----|     |---3---|     |----3----|
   Q       E     E    E    E     Q       E     E    E    E
|-------------------------------------------------------------|
|-------------------------------------------------------------|
|-------------------------------------------------------------|
|--6-------6---------------------6-------6--------------------|
|--6-------6---------------------6-------6--------------------|
|--4-------4-----4----4----4-----4-------4-----4----4----4----|
|
|  S  S  S    S  S  S    S    S  S  S  S    S  S  S    S    S
|-19-16---------19-16-----------21-16---------19-16-----------|
|-------17--------------17------------17--------------17------|
|------------16--------------16------------16--------------16-|
|-------------------------------------------------------------|
|-------------------------------------------------------------|
|-------------------------------------------------------------|
|
|  S  S  S    S  S  S    S    S  S  S  S    S  S  S    S    S
|-16-12---------16-12-----------18-12---------16-12-----------|
|-------14--------------14------------14--------------14------|
|------------13--------------13------------13--------------13-|
|-------------------------------------------------------------|
|-------------------------------------------------------------|
|-------------------------------------------------------------|


   |---3---|     |----3----|     |-----3-----|     |-----3-----|
   Q       E     E    E    E     Q           E     E     E     E
|--------------------------------------------------------------------|
|--------------------------------------------------------------------|
|--------------------------------------------------------------------|
|--9-------9---------------------6-----------6-----------------------|
|--6-------6---------------------6-----------6-----------------------|
|--4-------4-----4----4----4-----4-----------4-----4-----4-----4-----|
|
|                                |--3--|  |--3--|  |--3--|  |--3--|
|  S  S  S    S  S  S    S    S  S  S  S  S  S  S  S  S  S  S  S  S
|-19-16---------19-16-----------19-16----21-16----19-16----18-16-----|
|-------17--------------17------------17-------17-------17-------17--|
|------------16--------------16--------------------------------------|
|--------------------------------------------------------------------|
|--------------------------------------------------------------------|
|--------------------------------------------------------------------|
|
|                                |--3--|  |--3--|  |--3--|  |--3--|
|  S  S  S    S  S  S    S    S  S  S  S  S  S  S  S  S  S  S  S  S
|-16-12---------16-12-----------16-12----18-14----16-12----14-12-----|
|-------14--------------14------------14-------14-------14-------14--|
|------------13--------------13--------------------------------------|
|--------------------------------------------------------------------|
|--------------------------------------------------------------------|
|--------------------------------------------------------------------|


   |---3---|     |----3----|     |---3---|     |----3----|
   Q       E     E    E    E     Q       E     E    E    E
|-------------------------------------------------------------|
|-------------------------------------------------------------|
|-------------------------------------------------------------|
|--9-------9---------------------6-------6--------------------|
|--7-------7-----7----7----7-----7-------7-----7----7----7----|
|-------------------------------------------------------------|
|
|  S  S  S    S  S  S    S    S  S  S  S    S  S  S    S    S
|-19-16---------19-16-----------21-16---------19-16-----------|
|-------17--------------17------------17--------------17------|
|------------16--------------16------------16--------------16-|
|-------------------------------------------------------------|
|-------------------------------------------------------------|
|-------------------------------------------------------------|
|
|  S  S  S    S  S  S    S    S  S  S  S    S  S  S    S    S
|-16-12---------16-12-----------18-12---------16-12-----------|
|-------14--------------14------------14--------------14------|
|------------13--------------13------------13--------------13-|
|-------------------------------------------------------------|
|-------------------------------------------------------------|
|-------------------------------------------------------------|


   |--------3---------|        |---------3----------|       |-----3-----|     |-----3-----|
   Q       Q          Q        Q           Q        Q       Q     Q     Q     Q     Q     Q
|--------------------------------------------------------|----------------------------------------|
|--------------------------------------------------------|----------------------------------------|
|--------------------------------------------------------|----------------------------------------|
|--4-------3-------------------4-----------3-------------|--4-----3-----------4-----3-------------|
|--2-------1----------4--------2-----------1--------4----|--2-----1-----4-----2-----1-----4-------|
|---------------------2-----------------------------2----|--------------2-----------------2-------|
|
|                              |--3--|  |--3--|  |--3--|    |--3--|  |--3--|  |--3--|  |--3--|
|  S  S  S    S  S  S    S  S  S  S  S  S  S  S  E  E  E    E  E  E  E  E  E  E  E  E  E  E  E
|-21-18---------21-18---------21-18----23-18----21-18----|-------------------------18-21-18-------|
|-------19--------------19----------19-------19-------19-|----------------19----19----------19----|
|------------18------------18----------------------------|-------18----18----18-------------------|
|--------------------------------------------------------|----20----20----------------------------|
|--------------------------------------------------------|-21-------------------------------------|
|--------------------------------------------------------|----------------------------------------|
|
|                              |--3--|  |--3--|  |--3--|
|  S  S  S    S  S  S    S  S  S  S  S  S  S  S  E  E  E
|-18-14---------18-14---------18-14----19-14----18-14----|----------------------------------------|
|-------16--------------16----------16-------16-------16-|----------------------------------------|
|------------15------------15----------------------------|----------------------------------------|
|--------------------------------------------------------|----------------------------------------|
|--------------------------------------------------------|----------------------------------------|
|--------------------------------------------------------|----------------------------------------|


  Gtr I
            |-3--|    |-3-|         |-3-|     |--3---|         |-3-|    |-3-|
   Q        E  E E Q  E E E     Q   E E E Q   E    E E     Q   E E E Q  E E E
|---------------------------|--------------------------|----------------------|
|---------------------------|--------------------------|----------------------|
|---------------------------|--------------------------|----------------------|
|---------------------------|--------------------------|----------------------|
|--2--------2--2-2-2--2-2-2-|---4---4-4-4-4---4----4-4-|---6---6-6-6-6--6-6-6-|
|--0--------0--0-0-0--0-0-0-|---2---2-2-2-2---2----2-2-|---4---4-4-4-4--4-4-4-|
|
| Gtr II
|           |-3--|    |-3-|         |-3-|     |--3---|         |-3-|    |-3-|
|  Q        E  E E Q  E E E     Q   E E E Q   E    E E     Q   E E E Q  E E E
|---------------------------|--------------------------|----------------------|
|---------------------------|--------------------------|----------------------|
|--9--------9--9-9-9--9-9-9-|---6---6-6-6-6---6----6-6-|---4---4-4-4-4--4-4-4-|
|---------------------------|--------------------------|----------------------|
|--7--------7--7-7-7--7-7-7-|---4---4-4-4-4---4----4-4-|---2---2-2-2-2--2-2-2-|
|---------------------------|--------------------------|----------------------|
|
| Gtr III                     Gtr III                    Gtr III
|      >                                      >
|  ~~~~~~~~~~~~~~~~~~~~~~~~~~~~~~~~
|  H  +Q   +Q                  +H.            Q           +W
|-19-(19)-(19)--------------|-(19)-----------19b21r====|=(19)-----------------|
|---------------------------|--------------------------|----------------------|
|---------------------------|--------------------------|----------------------|
|---------------------------|--------------------------|----------------------|
|---------------------------|--------------------------|----------------------|
|---------------------------|--------------------------|----------------------|


       |--3--|    |-3-|      |-3-|    |-3-|      |-3-|    |-3-|
   Q   E  E  E Q  E E E   Q  E E E Q  E E E   Q  E E E Q  E E E
|-----------------------|-------------------|-------------------|
|-----------------------|-------------------|-------------------|
|-----------------------|-------------------|-------------------|
|-----------------------|-------------------|-------------------|
|--9---9--9--9-4--4-4-4-|-2--2-2-2-2--2-2-2-|-4--4-4-4-4--4-4-4-|
|--7---7--7--7-2--2-2-2-|-0--0-0-0-0--0-0-0-|-2--2-2-2-2--2-2-2-|
|
|      |--3--|    |-3-|      |-3-|    |-3-|      |-3-|    |-3-|
|  Q   E  E  E Q  E E E   Q  E E E Q  E E E   Q  E E E Q  E E E
|-----------------------|-------------------|-------------------|
|-----------------------|-------------------|-------------------|
|-11--11-11-11-6--6-8-8-|-9--9-9-9-9--9-9-9-|-6--6-6-6-6--6-6-6-|
|-----------------------|-------------------|-------------------|
|--9---9--9--9-4--4-6-6-|-7--7-7-7-7--7-7-7-|-4--4-4-4-4--4-4-4-|
|-----------------------|-------------------|-------------------|


       |--3--|      |--3--|        |-3-|      |-3-|
   Q   E  E  E  Q   E  E  E    Q   E E E  Q   E E E
|---------------------------|-----------------------|
|---------------------------|-----------------------|
|---------------------------|-----------------------|
|---------------------------|-----------------------|
|--9---9--9--9--9---9--9--9-|--9---9-9-9--9---9-9-9-|
|--7---7--7--7--7---7--7--7-|--6---6-6-6--6---6-6-6-|
|
|                             Gtr II
|      |--3--|      |--3--|
|  Q   E  E  E  Q   E  E  E    Q   Q      Q   Q
|---------------------------|-----------------------|
|---------------------------|-----------------------|
|-11--11-11-11-11--11-11-11-|-15--13-----15--16-----|
|---------------------------|-----------------------|
|--9---9--9--9--9---9--9--9-|-13--11-----13--14-----|
|---------------------------|-----------------------|
|
|                             Gtr III
|---------------------------|-----------------------|
|---------------------------|-----------------------|
|---------------------------|-----------------------|
|---------------------------|-----------------------|
|---------------------------|-----------------------|
|---------------------------|-----------------------|


         |-3-|         |-3-|
    Q    E E E  Q      E E E
|----------------------------|
|----------------------------|
|----------------------------|
|----------------------------|
|---2----2-2-2--2------2-2-2-|
|---0----0-0-0--0------0-0-0-|
|
|                      ~~
|  +Q    Q      S  E.  Q
|----------------------------|
|--------7------7--9---7-----|
|-(16)-----------------------|
|----------------------------|
|-(14)-----------------------|
|----------------------------|
|
|                      ~~
|   Q    Q      S  E.  Q
|----------------------------|
|-------11-----11-12--11-----|
|----------------------------|
|----------------------------|
|----------------------------|
|----------------------------|


         |-3-|         |-3-|
    Q    E E E  Q      E E E
|----------------------------|
|----------------------------|
|----------------------------|
|----------------------------|
|---4----4-4-4--4------4-4-4-|
|---2----2-2-2--2------2-2-2-|
|
|   ~~~~               ~~~~~~~
|  +Q    Q      S  E.  Q
|----------------------------|
|--(7)---7------7--9---7-----|
|----------------------------|
|----------------------------|
|----------------------------|
|----------------------------|
|
|   ~~~~               ~~~~~~~
|  +Q    Q      S  E.  Q
|----------------------------|
|-(11)--11-----11-12--11-----|
|----------------------------|
|----------------------------|
|----------------------------|
|----------------------------|


         |-3-|         |-3-|       |-3-|     |-3-|
    Q    E E E  Q      E E E    Q  E E E  Q  E E E
|----------------------------|---------------------|
|----------------------------|---------------------|
|----------------------------|---------------------|
|----------------------------|---------------------|
|---6----6-6-6--6------6-6-6-|--9--9-9-9--4--4-4-4-|
|---4----4-4-4--4------4-4-4-|--7--7-7-7--2--2-2-2-|
|
|~~~~~~                                   ~~
|  +Q    Q      S  E.  Q        H         H
|----------------------------|---------------------|
|--(7)---7------7--9---7-----|---------------------|
|----------------------------|--9---------8--------|
|----------------------------|---------------------|
|----------------------------|---------------------|
|----------------------------|---------------------|
|
|~~~~~~                                   ~~
|  +Q    Q      S  E.  Q        H         H
|----------------------------|---------------------|
|-(11)--11-----11-12--11-----|---------------------|
|----------------------------|-13--------11--------|
|----------------------------|---------------------|
|----------------------------|---------------------|
|----------------------------|---------------------|


          |-3-|         |-3-|
    Q     E E E  Q      E E E
|-----------------------------|
|-----------------------------|
|-----------------------------|
|-----------------------------|
|---2-----2-2-2--2------2-2-2-|
|---0-----0-0-0--0------0-0-0-|
|
|  +Q     Q      S  E.  Q
|-----------------------------|
|-----------------------------|
|--(8)---/8------8--9---8-----|
|-----------------------------|
|-----------------------------|
|-----------------------------|
|
|  +Q     Q      S  E.  E
|-----------------------------|
|-----------------------------|
|-(11)--/11-----11-13--11-----|
|-----------------------------|
|-----------------------------|
|-----------------------------|


        |-3-|       |-3-|        |-3-|      |-3-|
    Q   E E E Q     E E E    Q   E E E Q    E E E
|-------------------------|-----------------------|
|-------------------------|-----------------------|
|-------------------------|-----------------------|
|-------------------------|-----------------------|
|---4---4-4-4-4-----4-4-4-|--9---9-9-9-9----9-9-9-|
|---2---2-2-2-2-----2-2-2-|--7---7-7-7-7----7-7-7-|
|
|  +Q   Q     S  E. Q       +Q   Q     S E. Q
|-------------------------|-----------------------|
|-------------------------|-----------------------|
|--(8)--6-----6--8--6-----|-(6)--4-----4-6--4-----|
|-------------------------|-----------------------|
|-------------------------|-----------------------|
|-------------------------|-----------------------|
|
|  +Q   Q     S  E. Q       +Q   Q     S E. Q
|-------------------------|-----------------------|
|-------------------------|-----------------------|
|-(11)--9-----9-11--9-----|-(9)--8-----8-9--8-----|
|-------------------------|-----------------------|
|-------------------------|-----------------------|
|-------------------------|-----------------------|


                           Gtrs I, II
       |-3-|      |-3--|
   Q   E E E  Q   E  E E   W
|------------------------|-------------------|
|------------------------|-------------------|
|------------------------|-------------------|
|------------------------|-------------------|
|--9---9-9-9--9---9--9-9-|-2-----------------|
|--6---6-6-6--6---6--6-6-|-0-----------------|
|
|                          Gtr III
|  Q   Q      Q   Q        Q   Q    Q    Q
|------------------------|-------------------|
|------------------------|-------------------|
|------------------------|-----8----9----8---|
|--8---9------8----------|-9--(9)--(9)--(9)--|
|-----------------9\-----|-------------------|
|------------------------|-------------------|
|
|  Q   Q      Q   Q
|------------------------|-------------------|
|------------------------|-------------------|
|------------------------|-------------------|
|-11--13-----11----------|-------------------|
|----------------13\-----|-------------------|
|------------------------|-------------------|


   W                W
|-----------------|-------------------|
|-----------------|-------------------|
|-----------------|-------------------|
|-----------------|-------------------|
|--4--------------|-6-----------------|
|--2--------------|-4-----------------|
|
|  Q    Q   Q  Q    Q   Q    Q    Q
|-----------------|-------------------|
|-----------------|-------------------|
|-------8---9--8--|-----8----9----8---|
|-11--(11)--------|-9--(9)--(9)--(9)--|
|-----------------|-------------------|
|-----------------|-------------------|
|
|-----------------|-------------------|
|-----------------|-------------------|
|-----------------|-------------------|
|-----------------|-------------------|
|-----------------|-------------------|
|-----------------|-------------------|


   H        H       W                    W                 W
|-----------------|-------------------|------------------|-------------------|
|-----------------|-------------------|------------------|-------------------|
|-----------------|-------------------|------------------|-------------------|
|-----------------|-------------------|------------------|-------------------|
|--9--------4-----|-2-----------------|--4---------------|-9-----------------|
|--7--------2-----|-0-----------------|--2---------------|-7-----------------|
|
|  Q    Q   Q  Q    Q   Q    Q    Q      Q    Q    Q  Q    Q   Q    Q    Q
|-----------------|-------------------|------------------|-------------------|
|-----------------|-------------------|------------------|-------------------|
|-------8------8--|-----8----9----8---|-------8---11--8--|-----8----9----8---|
|-11--(11)--8-----|-9--(9)--(9)--(9)--|-11--(11)---------|-9--(9)--(9)--(9)--|
|-----------------|-------------------|------------------|-------------------|
|-----------------|-------------------|------------------|-------------------|


   W                W               W
|-----------------|---------------|---------------|
|-----------------|---------------|---------------|
|-----------------|---------------|---------------|
|-----------------|-2-------------|-8-------------|
|--9--------------|-2-------------|---------------|
|--6--------------|-0-------------|-6-------------|
|
|  Q    Q   Q  Q    Q  Q   Q   Q    Q  Q   Q   Q
|-----------------|--------7------|--------7------|
|-----------------|---------------|---------------|
|-------8---------|-8--9--(9)--9--|-8--9--(9)--9--|
|-11--(11)--8--9--|---------------|---------------|
|-----------------|---------------|---------------|
|-----------------|---------------|---------------|


  W               +W                  +W           +W
|---------------|-------------------|------------|--------|
|---------------|-------------------|------------|--------|
|---------------|-------------------|------------|--------|
|-6-------------|-(6)---------------|-(6)--------|-(6)----|
|-6-------------|-(6)---------------|-(6)--------|-(6)----|
|-4-------------|-(4)---------------|-(4)--------|-(4)----|
|
| Q  Q   Q   Q     Q   Q  +Q   +Q     +W           +W
|--------7------|------7--(7)--(7)--|-(7)--------|-(7)----|
|---------------|-------------------|------------|--------|
|-8--9--(9)--9--|--8----------------|------------|--------|
|---------------|-------------------|------------|--------|
|---------------|-------------------|------------|--------|
|---------------|-------------------|------------|--------|






Duration Legend
---------------
W - whole; H - half; Q - quarter; E - 8th; S - 16th; T - 32nd; X - 64th; a - acciaccatura
+ - note tied to previous; . - note dotted; .. - note double dotted
Uncapitalized letters represent notes that are staccato (1/2 duration)
Irregular groupings are notated above the duration line
Duration letters will always appear directly above the note/fret number it represents the
duration for.  Duration letters with no fret number below them represent rests.  Multi-
bar rests are notated in the form Wxn, where n is the number of bars to rest for.  Low
melody durations appear below the staff

Tablature Legend
----------------
 h   - hammer-on
 p   - pull-off
 b   - bend
 pb  - pre-bend
 r   - bend release (if no number after the r, then release immediately)
 /\  - slide into or out of (from/to "nowhere")
 s   - legato slide
 S   - shift slide
 - natural harmonic
[n]  - artificial harmonic
n(n) - tapped harmonic
 ~   - vibrato
 tr  - trill
 T   - tap
 TP  - trem. picking
 PM  - palm muting
\n/  - tremolo bar dip; n = amount to dip
 \n  - tremolo bar down
 n/  - tremolo bar up
/n\  - tremolo bar inverted dip
 =   - hold bend; also acts as connecting device for hammers/pulls
 <> - volume swell (louder/softer)
 x   - on rhythm slash represents muted slash
 o   - on rhythm slash represents single note slash

Misc Legend
-----------
 |  - bar
||  - double bar
||o - repeat start
o|| - repeat end
*|  - double bar (ending)
 :  - bar (freetime)
 $  - Segno
 &  - Coda
Tempo markers -  = BPM(8/16=s8/s16), where s8 = swing 8ths, s16 = swing 16ths





Comments


Popular Darkest Hour tabs & chords
An Epitaph Bass Tabs
Oklahoma Bass Tabs
An Epitaph Tabs
Aquetis Vertunis Tabs
Demons Tabs
Doomsayer 1 Tabs
Doomsayer 2 Tabs
Doomsayer 4 Tabs
Full Emperial Collapse Tabs
Pay Phones And Pills Tabs


Song lyrics



↑ Back to top | Tablatures and chords are parodies/interpretations of the original songs. You may use it for private study, scholarship, research or language learning purposes only
© 2014 AZChords.com Contact us | Privacy policy | DMCA | Add/correct tabs | Request tabs | Top 50 tabs