>
 >
Demon(S)

Demon(S) Bass Tabs

Darkest Hour - Demon(S) chords, tabs, tablatures, lyrics

Guitar lessons | Add/correct | Request | Top 50 tabs Artists:  A B C D E F G H I J K L M N O P Q R S T U V W X Y Z 0-9

Demon(S) Bass Tabs – Darkest Hour

CD, Sheet music, Poster

Do you like Demon(S)? Share with your friends now
Bass TabsTabs
Enjoy!

Tuning: Standard
Time: 4/4


Riff 1:

  e.    s s s e   e.    s s s e    e.    s s s e   e.    s s s e 
|---------------------------------|--------------------------------|
|---------------------------------|--------------------------------|
|-4-----4-4-4-4---4-----4-4-4-4---|4-----4-4-4-4---4-----4-4-4-4---|
|---------------------------------|--------------------------------|

  e.    s s s e   e.    s s s e    e.    s s s e   e.    s s s e   
|---------------------------------|--------------------------------|
|---------------------------------|--------------------------------|
|-5-----5-5-5-5---5-----5-5-5-5---|----------------7-----7-7-7-7---|
|---------------------------------|5-----5-5-5-5-------------------|

  e.    s s s e   e.    s s s e    e.    s s s e   e.    s s s e 
|---------------------------------|--------------------------------|
|---------------------------------|--------------------------------|
|-4-----4-4-4-4---4-----4-4-4-4---|4-----4-4-4-4---4-----4-4-4-4---|
|---------------------------------|--------------------------------|

  e.    s s s e   e.    s s s e     w
|---------------------------------|--------------------------------|
|---------------------------------|--------------------------------|
|-5-----5-5-5-5---5-----5-5-5-5---|-r------------------------------|
|---------------------------------|--------------------------------|


Riff 2:
  
  e.    s s s e   e.    s s s e    e.    s s s e   e.    s s s e 
|---------------------------------|--------------------------------|
|---------------------------------|--------------------------------|
|-4-----4-4-4-4---4-----4-4-4-4---|4-----4-4-4-4---5-----5-5-5-5---|
|---------------------------------|--------------------------------|

  e.    s s s e   e.    s s s e    e.    s s s e   e.    s s s e   
|---------------------------------|--------------------------------|
|---------------------------------|--------------------------------|
|-5-----5-5-5-5---5-----5-5-5-5---|--------------------------------|
|---------------------------------|7-----7-7-7-7---7-----7-7-7-7---|

Repeat


  e.    s s s e   e.    s s s e    e.    s s s e   e.    e.    e   
|---------------------------------|--------------------------------|
|---------------------------------|--------------------------------|
|-4-----4-4-4-4---4-----4-4-4-4---|4-----4-4-4-4---4---------------|
|---------------------------------|----------------------7-----5---|

  e.    s s s e   e.    s s s e    e.    s s s e   e.    s s s e   
|---------------------------------|--------------------------------|
|---------------------------------|--------------------------------|
|---------------------------------|7-----7-7-7-7---5-----5-5-5-5---|
|-5-----5-5-5-5---4-----4-4-4-4---|--------------------------------|

Repeat


Riff 3: listen for timing here.
 
|-------------------------|
|-------------------------|
|-------------------------|
|-2-2-2-2-2-2-2-2-2-2-2-2-| x2

|-------------------------|------------------------|
|-------------------------|------------------------|
|-------------------------|------------------------|
|-5-5-5-5-5-5-5-5-5-5-5-5-|7-7-7-7-7-7-7-7-7-7-7-7-|

repeat


Riff 4:

  e.    s s s e   e.    s s s e    e.    s s s e   e.    e.    e   
|---------------------------------|--------------------------------|
|---------------------------------|--------------------------------|
|-4-----4-4-4-4---4-----4-4-4-4---|4-----4-4-4-4---4---------------|
|---------------------------------|----------------------7-----5---|

  e.    s s s e   e.    s s s e    
|---------------------------------|------|
|---------------------------------|------|
|---------------------------------|  ----|
|-5-----5-5-5-5---4-----4-4-4-4---|5/12\2|


Riff 5:

  e.    s s s e   e.    s s s e    e.    s s s e   e.    e.    e   
|---------------------------------|--------------------------------|
|---------------------------------|--------------------------------|
|-4-----4-4-4-4---4-----4-4-4-4---|4-----4-4-4-4---4---------------|
|---------------------------------|----------------------7-----5---|

  e.    s s s e   e.    s s s e    e.    s s s e   e.    s s s e   
|---------------------------------|--------------------------------|
|---------------------------------|--------------------------------|
|---------------------------------|7-----7-7-7-7---5-----5-5-5-5---|
|-5-----5-5-5-5---4-----4-4-4-4---|--------------------------------|

  e.    s s s e   e.    s s s e    e.    s s s e   e.    e.    e   
|---------------------------------|--------------------------------|
|---------------------------------|--------------------------------|
|-4-----4-4-4-4---4-----4-4-4-4---|4-----4-4-4-4---4---------------|
|---------------------------------|----------------------7-----5---|

  e.    s s s e   e.    s s s e   
|---------------------------------|------------------------|
|---------------------------------|------------------------|
|---------------------------------|------------------------|
|-5-----5-5-5-5---4-----4-4-4-4---|5---4---0---5---4---0---|


Riff 6:

And one of these days...

|-------------------------------------|
|-------------------------------------|
|-------------------------------------|
|-10-10-10-10-10-10-10-10-10-10-10-10-|

|-------------------------------------|
|-------------------------------------|
|-11-11-11-11-11-11-11-11-11-11-11-11-|
|-------------------------------------|

|-------------------------|
|-------------------------|
|-------------------------|
|-9-9-9-9-9-9-9-9-9-9-9-9-|

|-----------------------------------|
|-----------------------------------|
|-----------------------------------|
|-12-12-12-12-12-12-12-12-10-10-9-9-|

|-------------------------------------|
|-------------------------------------|
|-------------------------------------|
|-10-10-10-10-10-10-10-10-10-10-10-10-|

|-------------------------------------|
|-------------------------------------|
|-11-11-11-11-11-11-11-11-11-11-11-11-|
|-------------------------------------|

|-------------------------------------|
|-------------------------------------|
|-------------------------------------|
|-10-10-10-10-10-10-10-10-10-10-10-10-|

|----------------------------------|
|----------------------------------|
|----------9-9-9-11-11-11-12-12-12-|
|-12-12-12-------------------------|

Repaeat all. Second time around replace last 2 lines with this...


|-------------------------|
|-------------------------|
|-------------------------|
|-9-9-9-9-9-9-9-9-9-9-9-9-|

|-------------------------|
|-------------------------|
|-------------------------|
|-7-7-7-7-7-7-7-7-7-7-7-7-|


Riff 7:

|-------------------------|
|-------------------------|
|-------------------------|
|-2-2-2-2-2-2-2-2-2-2-2-2-| x4

|-------------------------|
|-------------------------|
|-2-2-2-------------------|
|-------5-5-5-4-5-4-0-----| x3

|-------------------------|
|-------------------------|
|-------------------------|
|-5---4---0---5---4---0---|


Riff 8: 

  w    w    w
|-----|----|----|
|-----|----|----|
|-9---|11--|9---|
|-----|----|----|

  e e e e e e e e
|-----------------|
|-----------------|
|-----------------|
|-9-9-9-9-9-9-9-9-|

  e  e  e  e  e  e  e  e
|-------------------------|
|-------------------------|
|-------------------------|
|-10-10-10-10-10-10-10-10-|

  e  e  e  e  e  e  e  e
|-------------------------|
|-------------------------|
|-11-11-11-11-11-11-11-11-|
|-------------------------|

  e e e e e e e e
|-----------------|
|-----------------|
|-----------------|
|-9-9-9-9-9-9-9-9-| x2

  e  e  e  e  e  e  e  e
|-------------------------|
|-------------------------|
|-------------------------|
|-10-10-10-10-10-10-10-10-|

  e  e  e  e  e  e  e  e
|-------------------------|
|-------------------------|
|-------------------------|
|-11-11-11-11-11-11-11-11-|


Riff 9:

  s s s s s s s s s s s s s s s s  s s s s s s s s s s s s s s s s
|---------------------------------|--------------------------------|
|---------------------------------|--------------------------------|
|---------------------------------|--------------------------------|
|-2-2-2-2-2-2-2-2-2-2-2-2-2-2-2-2-|2-2-2-2-2-2-2-2-2-2-2-2-2-2-2-2-|

  s s s s s s s s s s s s s s s s  s s s s s s s s s s s s s s s s
|---------------------------------|--------------------------------|
|---------------------------------|--------------------------------|
|---------------------------------|--------------------------------|
|-5-5-5-5-5-5-5-5-5-5-5-5-5-5-5-5-|7-7-7-7-7-7-7-7-0-0-0-0-0-0-0-0-|

  s s s s s s s s s s s s s s s s  s s s s s s s s s s s s s s s s
|---------------------------------|--------------------------------|
|---------------------------------|--------------------------------|
|---------------------------------|--------------------------------|
|-2-2-2-2-2-2-2-2-2-2-2-2-2-2-2-2-|2-2-2-2-2-2-2-2-2-2-2-2-2-2-2-2-|

  w        h   h  
|---------|--------|
|---------|--------|
|---------|--------|
|-5-------|7---9---|


Riff 10:

  e.    s s s e   e.    s s s e    e.    s s s e   e.    s s s e 
|---------------------------------|--------------------------------|
|---------------------------------|--------------------------------|
|---------------------------------|----------------5-----5-5-5-5---|
|-2-----2-2-2-2---2-----2-2-2-2---|2-----2-2-2-2-------------------|

  e.    s s s e   e.    s s s e    e.    s s s e   e.    s s s e   
|---------------------------------|--------------------------------|
|---------------------------------|--------------------------------|
|-5-----5-5-5-5---5-----5-5-5-5---|--------------------------------|
|---------------------------------|0-----0-0-0-0---0-----0-0-0-0---|

  e.    s s s e   e.    s s s e    e.    s s s e   e.    s s s e 
|---------------------------------|--------------------------------|
|---------------------------------|--------------------------------|
|---------------------------------|----------------5-----5-5-5-5---|
|-2-----2-2-2-2---2-----2-2-2-2---|2-----2-2-2-2-------------------|

  e.    s s s e   e.    s s s e 
|---------------------------------|
|---------------------------------|
|-5-----5-5-5-5---5-----5-5-5-5---|
|---------------------------------|

|-------------|
|-------------|
|-------------|
|-5-4-0-5-4-0-| x2


Riff 11:

So don't give up on me....
|-------------------------|------------------------|
|-------------------------|------------------------|
|-------------------------|------------------------|
|-5-5-5-5-5-5-5-5-5-5-5-5-|7-7-7-7-7-7-7-7-7-7-7-7-|

|-------------------------|------------------------|
|-------------------------|------------------------|
|-------------------------|------------------------|
|-9-9-9-9-9-9-9-9-9-9-9-9-|7-7-7-7-7-7-7-7-7-7-7-7-| 

Repeat


Riff 12:
  w     w    
|------|----|--------|
|------|----|--------|
|------|----|--------|
|-10---|7---|2-------|   hold last note



Those are the riffs, now here is the order.

Riff 1
Riff 2
Riff 3
Riff 4
Riff 5
Riff 6
Riff 7
Riff 7
Riff 6
Riff 8
Riff 9
Riff 10
Riff 6
Riff 11
Riff 12





Comments


Popular Darkest Hour tabs & chords
Reflections Of Ruin Bass Tabs
A Distorted Utopia Tabs
How The Beautiful Decay Tabs
No God Tabs
No God Intro Tabs
Paradox With The Flies Intro Tabs
Pathos Tabs
Stand And Receive Your Judgement Tabs
These Fevered Times Tabs
Tranquil Tabs


Song lyrics



↑ Back to top | Tablatures and chords are parodies/interpretations of the original songs. You may use it for private study, scholarship, research or language learning purposes only
© 2014 AZChords.com Contact us | Privacy policy | DMCA | Add/correct tabs | Request tabs | Top 50 tabs