» » »

An Ethereal Drain Tabs (ver.3)

Artists:  A B C D E F G H I J K L M N O P Q R S T U V W X Y Z # 

An Ethereal Drain Tabs (ver.3)

Darkest Hour
Rating:
0/5 (0 votes)

Hard to play? Try these video lessons and learn fast.
                ----------------------------------------------------------------------------
----------------------------------------------------------------------------

Tuning: Drop C

THIS IS THE OUTRO
Do this part 3 times...
e|---------------------------------------|---------------------------------|
B|--------9---11---12p11----12p11----11~-|---------------------------------|
G|----8-----8----8-------11-------11-----|--------11---------------11------|
D|6-6---6--------------------------------|--9-8-9----9-8-9---9-8-9----9-8-9|
A|---------------------------------------|7----------------7---------------|
E|---------------------------------------|---------------------------------|

   . .   .   .    
e|-------------------------------------------------------------------------|
B|-------------------------------------------------------------------------|
G|-------------------11--------------11---------------11-------------------|
D|-6-9-8-9~--6-9-8-9----9-8----9-8-9----9-8-9---9-8-9----9-8-9-------------|
A|---------------------------7----------------7----------------------------|
E|-------------------------------------------------------------------------|

e|-------------------------------------------------------------------------|
B|-------------------------------------------------------------------------|
G|-------------------11-------------11-------11-------11-------------------|
D|-6-9-8-9~--6-9-8-9----9-8---9-8-9----9-8-9----9-8-9----9-8-9-------------|
A|--------------------------7----------------------------------------------|
E|-------------------------------------------------------------------------|


This next part is played 2 times, up until the Palm-muted/Tremolo picked part.

e|----11--/-16----18----19p18----19p18----19~-|------------14--------------|
B|9-9----9/----16----16-------19-------19-----|---12-11-12----12-11-12---12|
G|---------------------------------------------|-9----------------------9--|
D|--------------------------------------------|----------------------------|
A|--------------------------------------------|----------------------------|
E|--------------------------------------------|----------------------------|

e|------14----------|---------------------------------|--------------------|
B|11-12----12-11-12-|---------------------------------|--------------------|
G|------------------|---------11---------------11-----|--------------------|
D|------------------|---9-8-9----9-8-9---9-8-9----9-8-|-4-6\\--------------|
A|------------------|-7----------------7--------------|-4-6\\--------------|
E|------------------|---------------------------------|-4-6\\------End-----|

                  ^x2 ................................
                       ^Tremolo picked and palm-muted


************************************

| /   slide up
| \   slide down
| h   hammer-on
| p   pull-off
| ~   vibrato
| +   harmonic
| x   Mute note
| b   Bend
| pb  Pre-bend
| br  Bend release
| pbr Pre-bend release
| brb Bend release bend

************************************
            
Hard to play? Try these video lessons and learn fast. | Correct




comments powered by Disqus
↑ Back to top | Tablatures and chords are parodies/interpretations of the original songs. You may use it for private study, scholarship, research or language learning purposes only