» » »

An Epitaph Bass tabs (ver.1)

Artists:  A B C D E F G H I J K L M N O P Q R S T U V W X Y Z # 

An Epitaph Bass tabs (ver.1)

Darkest Hour
Rating:
0/5 (0 votes)

Tabs too difficult? Try these video lessons and learn fast.
                Band- darkest Hour
Song- An Epitaph

Tuning: C G C F

Intro (0:00)
F |-------------------------------|
C |-------------------------------|
G |-------------------------------|
C |---55-55-77-33-55-55-77-33-0~--|

Verse (0:11)
F |-----------------------------------|
C |-----------------------------------|
G |------8---8---8p7p5-----5-----5h7--|
C |--000---0---0-------333---555------|

F |---------------------------------|
C |---------------------------------|
G |------8---8---8p7p5-----5-----0--|
C |--000---0---0-------333---555----|

F |-----------------------------------|
C |-----------------------------------|
G |------8---8---8p7p5-----5-----5h7--|
C |--000---0---0-------333---555------|

F |------------------------------|
C |------------------------------|
G |------8---8---8p7p5-----------|
C |--000---0---0--------77-33-0--|

Pre Chorus (0:31)
F |-----------------------------------------------------|
C |-----------------------------------------------------|
G |-----------------------------------------------------|
C |--0-7-5-3-5-7---0-7-5-3-5-7---0-7-5-3-5-7---5-5-8-3--|

Chorus (0:40)
F |-------------------------------------------|
C |-------------------------------------------|
G |-------------------------------------------|
C |--5555-5555-3333-1111-0000-0000-0000-0000--|

F |-------------------------------------------|
C |-------------------------------------------|
G |-------------------------------------------|
C |--5555-5555-7777-7777-8888-8888-8888-8888--|

Verse (1:01)
Pre Chorus (1:20)
Chrous (1:31)

Brigde (1:55)
F |---------------------------------|
C |---------------------------------|
G |---------------------------------|
C |--0000-0000-3333-3333-7777-7777--|

F |-------------------------------------------|
C |-------------------------------------------|
G |-------------------------------------------|
C |--0000-0000-3333-3333-7777-7777-7777-7777--|

Brigde 2 (2:12)
F |-------------------------------------------|
C |-------------------------------------------|
G |-------------------------------------------|
C |--0000-0000-3333-3333-7777-7777-7777-7777--|x2

Brigde 3 (2:23)   (2:43)
F |------------|------------|
C |------------|------------|
G |------------|------------|
C |--0~-3~-7~--|--0~-3~-5~--|

Fill (2:51)
F |---------|
C |---------|
G |---------|
C |--3-5-6--|

Pre Chorus (2:52)
Chorus (3:02)

Ending Riff (3:22)
F |-----------------------------------------------------------|
C |-----------------------------------------------------------|
G |-----------------------------------------------------------|
C |--0-10-8-3-5---0-10-8-3-5---0-10-8-3-5---0-10-8-3---3-5-6--|
            
Tabs too difficult? Try these video lessons and learn fast.


comments powered by Disqus
↑ Back to top | Tablatures and chords are parodies/interpretations of the original songs. You may use it for private study, scholarship, research or language learning purposes only