>
 >
An Epitaph

An Epitaph Guitar Tabs

Darkest Hour - An Epitaph chords, tabs, tablatures, lyrics

Guitar lessons | Add/correct | Request | Top 50 tabs Artists:  A B C D E F G H I J K L M N O P Q R S T U V W X Y Z 0-9

An Epitaph Guitar Tabs – Darkest Hour

CD, Sheet music, Poster

Do you like An Epitaph? Share with your friends now
Bass TabsTabs
-----------------------------------------------------------------------------
-----------------------------------------------------------------------------

Tuning: CGCFAD (Dropped C)

Great song by an even greater band. There are 
tabs of this song out there but 
they are pretty..wrong? So I listened and 
If you have any compliments, comments, suggestions, 
this is at the very least, 95% right. Enjoi.


   Intro
D|---------------------------------|     D|------------------|
A|---------------------------------|     A|------------------|
F|---------------------------------|     F|------------------|
C|-xxx-5-5-xxx-5-5-xxx-8-8-xxx-3-3-| x2  C|-0~--------0~-----|
G|-xxx-5-5-xxx-5-5-xxx-8-8-xxx-3-3-|     G|-0~--------0~-----|
C|-xxx-5-5-xxx-5-5-xxx-8-8-xxx-3-3-|     C|-0~--------0~-----|

  Verse x2
D|-----------------------------------------------|
A|-----------------------------------------------|
F|-----------------------------------------------|
C|-----------------------------------------------|
G|-------8-----5h8---8p5p0-------5---5-------5h6-|
C|-0-0-0-0-0-0-0---0-0-----3-3-3-3-3-3-6-6-6-6---|
   . . . . . . .   . .     . . . . . . . . . .

D|---------------------------------------------|
A|---------------------------------------------|
F|---------------------------------------------|
C|-------------------------------------------6-|
G|-------8-----5h8---8p5p0-------5---5-------6-|
C|-0-0-0-0-0-0-0---0-0-----3-3-3-3-3-3-0-0-0-6-|
   . . . . . . .   . .     . . . . . . . . . .

D|-----------------------------------------------|
A|-----------------------------------------------|
F|-----------------------------------------------|
C|-----------------------------------------------|
G|-------8-----5h8---8p5p0-------5---5-------5h6-|
C|-0-0-0-0-0-0-0---0-0-----3-3-3-3-3-3-6-6-6-6---|
   . . . . . . .   . .     . . . . . . . . . .

D|-----------------------------------------|
A|-----------------------------------------|
F|-----------------------------------------|
C|-------------------------6-6-xxx-1-1-xxx-|
G|-------8-----5h8---8p5p0-6-6-xxx-1-1-xxx-|
C|-0-0-0-0-0-0-0---0-0-----6-6-xxx-1-1-xxx-|
   . . . . . . .   . .     

   Pre Chorus
D|---------------------------------|
A|---------------------------------|
F|---------------------------------|
C|-0-------6--------5--------3-5-6-|
G|-0-8p5p0-6--8p5p0-5--8p5p0-3-5-6-|
C|-0-------6--------5--------3-5-6-|

D|---------------------------------|
A|---------------------------------|
F|---------------------------------|
C|-0-------6--------5--------3-5-3-|
G|-0-8p5p0-6--8p5p0-5--8p5p0-3-5-3-|
C|-0-------6--------5--------3-5-3-|

D|---------------------------------|
A|---------------------------------|
F|---------------------------------|
C|-0-------6--------5--------3-5-6-|
G|-0-8p5p0-6--8p5p0-5--8p5p0-3-5-6-|
C|-0-------6--------5--------3-5-6-|

D|------------------------------------|
A|------------------------------------|
F|------------------------------------|
C|-5--5-5-5-5-5--5-5-5-5-8--8-8-8-8-3-|
G|-5--5-5-5-5-5--5-5-5-5-8--8-8-8-8-3-|
C|-5--5-5-5-5-5--5-5-5-5-8--8-8-8-8-3-|

   Chorus
D|-----------------------------------------------|
A|-----------------------------------------------|
F|-7-9-14-12-14-15-14-12-14-17-14-12-14-15-14-12-|
C|-----------------------------------------------| x2
G|-5-7-12-10-12-13-12-10-12-15-12-10-12-13-13-10-|
C|-----------------------------------------------|

   Verse x2
D|-----------------------------------------------|
A|-----------------------------------------------|
F|-----------------------------------------------|
C|-----------------------------------------------|
G|-------8-----5h8---8p5p0-------5---5-------5h6-|
C|-0-0-0-0-0-0-0---0-0-----3-3-3-3-3-3-6-6-6-6---|
   . . . . . . .   . .     . . . . . . . . . .

D|---------------------------------------------|
A|---------------------------------------------|
F|---------------------------------------------|
C|-------------------------------------------6-|
G|-------8-----5h8---8p5p0-------5---5-------6-|
C|-0-0-0-0-0-0-0---0-0-----3-3-3-3-3-3-0-0-0-6-|
   . . . . . . .   . .     . . . . . . . . . .

D|-----------------------------------------------|
A|-----------------------------------------------|
F|-----------------------------------------------|
C|-----------------------------------------------|
G|-------8-----5h8---8p5p0-------5---5-------5h6-|
C|-0-0-0-0-0-0-0---0-0-----3-3-3-3-3-3-6-6-6-6---|
   . . . . . . .   . .     . . . . . . . . . .

D|-------------------------------------------|
A|-------------------------------------------|
F|-------------------------------------------|
C|-------------------------6-6-xxx-1-1-xxx-0-|
G|-------8-----5h8---8p5p0-6-6-xxx-1-1-xxx-0-|
C|-0-0-0-0-0-0-0---0-0-----6-6-xxx-1-1-xxx-0-|
   . . . . . . .   . .

D|---------------------------------|
A|---------------------------------|
F|---------------------------------|
C|-0-------6--------5--------3-5-6-|
G|-0-8p5p0-6--8p5p0-5--8p5p0-3-5-6-|
C|-0-------6--------5--------3-5-6-|

D|---------------------------------|
A|---------------------------------|
F|---------------------------------|
C|-0-------6--------5--------3-5-3-|
G|-0-8p5p0-6--8p5p0-5--8p5p0-3-5-3-|
C|-0-------6--------5--------3-5-3-|

D|---------------------------------|
A|---------------------------------|
F|---------------------------------|
C|-0-------6--------5--------3-5-6-|
G|-0-8p5p0-6--8p5p0-5--8p5p0-3-5-6-|
C|-0-------6--------5--------3-5-6-|

D|------------------------------------|
A|------------------------------------|
F|------------------------------------|
C|-5--5-5-5-5-5--5-5-5-5-8--8-8-8-8-3-|
G|-5--5-5-5-5-5--5-5-5-5-8--8-8-8-8-3-|
C|-5--5-5-5-5-5--5-5-5-5-8--8-8-8-8-3-|

D|-----------------------------------------------|
A|-----------------------------------------------|
F|-7-9-14-12-14-15-14-12-14-17-14-12-14-15-14-12-|
C|-----------------------------------------------| x2
G|-5-7-12-10-12-13-12-10-12-15-12-10-12-13-13-10-|
C|-----------------------------------------------|

D|---------------------------------------------------|
A|---------------------------------------------------|
F|---------------------------------------------------|
C|-------------------------------------------------6-|
G|-------5-----1h3---3p1p0-------3-----1h3---3h5h6-6-|
C|-0-0-0-0-0-0-0---0-0-----3-3-3-3-3-3-3---3-3-----6-|
   . . . . . . .   . .     . . . . . . .   . .

D|-------------------------------------------------------------------------|
A|-------------------------------------------------------------------------|
F|-------------------------------------------------------------------------|
C|-------------------------------------------------------------------------|
G|-------5-----1h3---3p1p0-------3-----1h3---3h5h6-------6p5h6-------6p5h6-|
C|-0-0-0-0-0-0-0---0-0-----3-3-3-3-3-3-3---3-3-----6-6-6-6-----6-6-6-6-----|
   . . . . . . .   . .     . . . . . . .   . .     . . . .     . . . .

D|-------------------------------------------------------------------------------------------------|
A|-------------------------------------------------------------------------------------------------|
F|-------------------------------------------------------------------------------------------------|
C|-------------------------------------------------------------------------------------------------|
G|-------5-----1h3---3p1p0-------3-----1h3---3h5h6-------6p5h6-------6p5h6-------6p5h6-------6p5h6-|
C|-0-0-0-0-0-0-0---0-0-----3-3-3-3-3-3-3---3-3-----6-6-6-6-----6-6-6-6-----6-6-6-6-----6-6-6-6-----|
   . . . . . . .   . .     . . . . . . .   . .     . . . .     . . . .     . . . .     . . . .

D|-------------------------------------------------------------------------|
A|-------------------------------------------------------------------------|
F|-------------------------------------------------------------------------|
C|-------------------------------------------------------------------------|
G|-------5-----1h3---3p1p0-------3-----1h3---3h5h6-------6p5h6-------6p5h6-|
C|-0-0-0-0-0-0-0---0-0-----3-3-3-3-3-3-3---3-3-----6-6-6-6-----6-6-6-6-----|
   . . . . . . .   . .     . . . . . . .   . .     . . . .     . . . .

D|-------------------------------------------------------------------------------------------------|
A|-------------------------------------------------------------------------------------------------|
F|-------------------------------------------------------------------------------------------------|
C|-------------------------------------------------------------------------------------------------|
G|-------5-----1h3---3p1p0-------3-----1h3---3h5h6-------6p5h6-------6p5h6-------6p5h6-------6p5h6-|
C|-0-0-0-0-0-0-0---0-0-----3-3-3-3-3-3-3---3-3-----6-6-6-6-----6-6-6-6-----6-6-6-6-----6-6-6-6-----|
   . . . . . . .   . .     . . . . . . .   . .     . . . .     . . . .     . . . .     . . . .

D|-------------------------------------------------------------------------------------------------|
A|-------------------------------------------------------------------------------------------------|
F|-------------------------------------------------------------------------------------------------|
C|-------------------------------------------------------------------------------------------------|
G|-------5-----1h3---3p1p0-------3-----1h3---3h5h6-------6p5h6-------6p5h6-------6p5h6-------6p5h6-|
C|-0-0-0-0-0-0-0---0-0-----3-3-3-3-3-3-3---3-3-----6-6-6-6-----6-6-6-6-----6-6-6-6-----6-6-6-6-----|
   . . . . . . .   . .     . . . . . . .   . .     . . . .     . . . .     . . . .     . . . .

D|-------------------------------------------------------------------------------------------------|
A|-------------------------------------------------------------------------------------------------|
F|-------------------------------------------------------------------------------------------------|
C|-------------------------------------------------------------------------------------------------|
G|-------5-----1h3---3p1p0-------3-----1h3---3h5h6-------6p5h6-------6p5h6-------6p5h6-------6p5h6-|
C|-0-0-0-0-0-0-0---0-0-----3-3-3-3-3-3-3---3-3-----6-6-6-6-----6-6-6-6-----6-6-6-6-----6-6-6-6-----|
   . . . . . . .   . .     . . . . . . .   . .     . . . .     . . . .     . . . .     . . . .

D|----------------------------------------------------------------------------|
A|----------------------------------------------------------------------------|
F|----------------------------------------------------------------------------|
C|-0----3----6----\-0----3----6----x\x----0----3----6----0----3----6----3-5-6-|
G|-0----3----6----\-0----3----6----x\x----0----3----6----0----3----6----3-5-6-|
C|-0----3----6----\-0----3----6----x\x----0----3----6----0----3----6----3-5-6-|
                                Pick Slide

D|-------------------------------|
A|-------------------------------|
F|-------------------------------|
C|-------6--------5--------3-5-6-|
G|-8p5p0-6--8p5p0-5--8p5p0-3-5-6-|
C|-------6--------5--------3-5-6-|

D|---------------------------------|
A|---------------------------------|
F|---------------------------------|
C|-0-------6--------5--------3-5-3-|
G|-0-8p5p0-6--8p5p0-5--8p5p0-3-5-3-|
C|-0-------6--------5--------3-5-3-|

D|---------------------------------|
A|---------------------------------|
F|---------------------------------|
C|-0-------6--------5--------3-5-6-|
G|-0-8p5p0-6--8p5p0-5--8p5p0-3-5-6-|
C|-0-------6--------5--------3-5-6-|

D|------------------------------------|
A|------------------------------------|
F|------------------------------------|
C|-5--5-5-5-5-5--5-5-5-5-8--8-8-8-8-3-|
G|-5--5-5-5-5-5--5-5-5-5-8--8-8-8-8-3-|
C|-5--5-5-5-5-5--5-5-5-5-8--8-8-8-8-3-|

D|-----------------------------------------------|
A|-----------------------------------------------|
F|-7-9-14-12-14-15-14-12-14-17-14-12-14-15-14-12-|
C|-----------------------------------------------| x2
G|-5-7-12-10-12-13-12-10-12-15-12-10-12-13-13-10-|
C|-----------------------------------------------|

D|-----------------------------------------------------------|
A|-----------------------------------------------------------|
F|-----------------------------------------------------------|
C|-0-------------10-------------8------------3-3-xxx-5-5-xxx-| x3
G|-0--5/8-8-8\5--10--5/8-8-8\5--8-5/8-8-8\5--3-3-xxx-5-5-xxx-|
C|-0-------------10-------------8------------3-3-xxx-5-5-xxx-|

Guitar2 plays this the 3rd time
D|-----------------------------------------------------------|
A|-----------------------------------------------------------|
F|---------------------------------------------tremelo-------|
C|-0--4/7-7-7/4--10--4/7-7-7/4--8-4/7-7-7/4--888888777777----|
G|-0-------------10-------------8----------------------------|
C|-0-------------10-------------8----------------------------|

D|---------------------------------------------------------|
A|---------------------------------------------------------|
F|---------------------------------------------------------|
C|-0-------------10-------------8------------3-3-xxx-3-5-6-|
G|-0--5/8-8-8\5--10--5/8-8-8\5--8-5/8-8-8\5--3-3-xxx-3-5-6-|
C|-0-------------10-------------8------------3-3-xxx-3-5-6-|
 |                                                         |
 |                                                         |
 |                                                         |
D|---------------------------------------------------------|
A|---------------------------------------------------------|
F|---------------------------------------------------------|
C|-0--4/7-7-7/4--10--4/7-7-7/4--8-4/7-7-7/4--3-3-xxx-3-5-6-|
G|-0-------------10-------------8------------3-3-xxx-3-5-6-|
C|-0-------------10-------------8------------3-3-xxx-3-5-6-|




Fin.





Comments


Popular Darkest Hour tabs & chords
Another Reason Tabs
Demon(S) Tabs
Eclipse Tabs
Full Imperial Collapse Tabs
Mark Of The Judas Tabs
Sound The Surrender Tabs
The Tides Intro Tabs
These Fevered Times Tabs
With A Thousand Words To Say But One 1 Tabs
With A Thousand Words To Say But One Intro Tabs


Song lyrics



↑ Back to top | Tablatures and chords are parodies/interpretations of the original songs. You may use it for private study, scholarship, research or language learning purposes only
© 2014 AZChords.com Contact us | Privacy policy | DMCA | Add/correct tabs | Request tabs | Top 50 tabs