>
 >
Sun

Sun Guitar Tabs

Daphne Loves Derby - Sun chords, tabs, tablatures, lyrics

Guitar lessons | Add/correct | Request | Top 50 tabs Artists:  A B C D E F G H I J K L M N O P Q R S T U V W X Y Z 0-9

Sun Guitar Tabs – Daphne Loves Derby

CD, Sheet music, Poster

Do you like Sun? Share with your friends now
TabsTabs v2Tabs v3

~~~~~~~~~~

Dedication: This song speaks many unspoken words of mine, 
involving a very special girl in my life. We only had a few days 
together and we stayed up all night and day, counting our moments
together, trying not to realize our happiness would end. Leaving her 
was the hardest thing I have ever done in my life. I keep replaying 
every minute I have of her, hoping never to lose those memories. 
Yet, they slowly start to fade... 

But I will never forget her, and though we live 
hundreds of miles apart now, I hope she's as happy as I am,
knowing that she's the one I daydream of during the day, 
the one dream about at night, the one I...

...Love, Forever.

~~~~~~~~~~

Tuning: Half Step Down (Eb,Ab,Db,Gb,Bb,Eb)

Beautiful Song, also my first contribution. The slap muting 
takes a while to get the hang of, but it adds a nice touch. 
As for the measures, my cutoffs were meant for organization,
in no way was it for counting, so use the song as a guide for
counting and strumming.

I will not promise 100% accuracy, but music is up to the soul
to interpret, and to me, this is 101% accurate.


Intro/Verse 1
     F#   *8        G              G              G
Eb|--X---X----X--|--X---X----X--|--X---X----X--|--X---X----X--|-----|
Bb|--3---3----X--|--3---3----X--|--3---3----X--|--3---3----X--|-----|
Gb|--2---2----X--|--2---2----X--|--2---2----X--|--2---2----X--|-----|
Db|--0---0----X--|--0---0----X--|--0---0----X--|--0---0----X--|-----|
Ab|--0---0----X--|--0---0----X--|--0---0----X--|--0---0----X--|-----|
Eb|--2---2----X--|--3---3----X--|--3---3----X--|--3---3----X--|-----|

     A 1* 2*        Bm             Bm             Bm      *3
Eb|--X---X----X--|--X---X----X--|--X---X----X--|--X---X----X--|-----|x4
Bb|--3---3----X--|--3---3----X--|--3---3----X--|--3---3----X--|-----|
Gb|--2---2----X--|--2---2----X--|--2---2----X--|--2---2----X--|-----|
Db|--2---2----X--|--0---0----X--|--0---0----X--|--0---0----X--|-----|
Ab|--0---0----X--|--2---2----X--|--2---2----X--|--2---2----X--|-----|
Eb|--0---0----X--|--0---0----X--|--0---0----X--|--0---0----X--|-----|


Pre-Chorus
                    D            G
Eb|--X--X--X--X--|--X~~-------|--X~~-------|--X---X---X--|
Bb|--3--3--3--X--|--3~~-------|--3~~-------|--X---X---X--|
Gb|--2--2--2--X--|--2~~-------|--2~~-------|--X---X---X--|
Db|--0--0--0--X--|--0~~-------|--0~~-------|--X---X---X--|
Ab|--2--2--2--X--|--0~~-------|--0~~-------|--X---X---X--|
Eb|--0--0--0--X--|--X~~-------|--3~~-------|--X---X---X--|


Chorus
     D                D
Eb|--X--X--X--X--X-|--X--X--X--X---X----(X)|
Bb|--3--3--2--3--3-|--3--3--2--3---3----(X)|
Gb|--2--2--2--2--2-|--2--2--2--2---2----(X)|
Db|--0--0--0--0--0-|--0--0--0--0---0----(X)|
Ab|--0--0--0--0--0-|--0--0--0--0---0----(X)|
Eb|--0--0--0--0--0-|--0--0--0--0(2)0(2)-(X)|

    G              G              G             *1 *2
Eb|-X---X----X--|--X---X----X--|--X---X----X--|--X--X---X-|Go to 1st
Bb|-3---3----X--|--3---3----X--|--3---3----X--|--3--3---X-| [Play the
Gb|-2---2----X--|--2---2----X--|--2---2----X--|--2--2---X-| Chorus
Db|-0---0----X--|--0---0----X--|--0---0----X--|--2--2---X-| Again]
Ab|-0---0----X--|--0---0----X--|--0---0----X--|--0--0---X-|Go to 2nd
Eb|-3---3----X--|--3---3----X--|--3---3----X--|--0--0---X-|


1st ending of Chorus (Go back to chorus when completed)
    Bm               F#               G                G
Eb|-X--X--X--X--X--|-X--X--X--X--X--|-X--X--X--X--X--|-X--X--X--X--X--|
Bb|-3--3--3--3--3--|-3--3--3--3--3--|-3--3--3--3--3--|-3--3--3--3--3--|
Gb|-2--2--2--2--2--|-2--2--2--2--2--|-2--2--2--2--2--|-2--2--2--2--2--|
Db|-0--0--0--0--0--|-0--0--0--0--0--|-0--0--0--0--0--|-0--0--0--0--0--|
Ab|-2--2--2--2--2--|-0--0--0--0--0--|-0--0--0--0--0--|-0--0--0--0--0--|
Eb|-0--0--0--0--0--|-2--2--2--2--2--|-3--3--3--3--3--|-3--3--3--3--3--|


2nd ending of Chorus
    Bm               4*
Eb|-X--X--X--X--X--|-X--X--X--X--X--|-X~~--|
Bb|-3--3--3--3--3--|-3--3--3--3--3--|-3~~--|
Gb|-2--2--2--2--2--|-2--2--2--2--2--|-2~~--|
Db|-0--0--0--0--0--|-0--0--0--0--0--|-0~~--|
Ab|-2--2--2--2--2--|-4--4--4--4--4--|-0~~--|
Eb|-0--0--0--0--0--|-0--0--0--0--0--|-x~~--|


Repeat Intro/Verse 1

Repeat Chorus (1st and 2nd endings)


Bridge
    G           G *5 
Eb|-X--X--X~~---X--X---|[Do not repeat here]
Bb|-3--3--3~~---3--3---|
Gb|-2--2--2~~---2--2---|
Db|-0--0--0~~---0--2---|
Ab|-0--0--0~~---0--0---|
Eb|-3--3--3~~---3--0---|

~~~~~~~~~~~~~~~~~~~~~~~~~~~~~

Repeated Riff 
       Bm         Bm                     Bm
Eb|--X--X--X--X-|-X--X--X--X--X--X--|-X--X--X--X--X--|
Bb|--X--3--3--X-|-3--3--3--X--3--3--|-X--3--3--3--X--|
Gb|--X--2--2--X-|-2--2--2--X--2--2--|-X--2--2--2--X--|
Db|--X--0--0--X-|-0--0--0--X--0--0--|-X--0--0--0--X--|
Ab|--X--2--2--X-|-2--2--2--X--2--2--|-X--2--2--2--X--|
Eb|--X--0--0--X-|-0--0--0--X--0--0--|-X--0--0--0--X--|

    D        D             D        D
Eb|-X--X--X--X--X--X--X--|-X--X--X--X--X--X--X--|
Bb|-3--3--X--3--3--3--X--|-3--3--X--3--3--3--X--|
Gb|-2--2--X--2--2--2--X--|-2--2--X--2--2--2--X--|
Db|-0--0--X--0--0--0--X--|-0--0--X--0--0--0--X--|
Ab|-0--0--X--0--0--0--X--|-0--0--X--0--0--0--X--|
Eb|-0--0--X--0--0--0--X--|-0--0--X--0--0--0--X--|

    G *6     G             G        G             *7
Eb|-X--X--X--X--X--X--X--|-X--X--X--X--X--X----X--(X)|[CUT OFF
Bb|-3--3--X--3--3--3--X--|-3--3--X--3--3--3----X--(3)|HERE ON 
Gb|-2--2--X--2--2--2--X--|-2--2--X--2--2--2----X--(2)|THIRD 
Db|-0--0--X--0--0--0--X--|-0--0--X--0--0--0(2)-X--(0)|REPEAT and
Ab|-0--0--X--0--0--0--X--|-0--0--X--0--0--0----X--(0)|go to Chorus!]
Eb|-3--3--X--3--3--3--X--|-3--3--X--3--3--3(0)-X--(3)|

    G        G             G        G
Eb|-X--X--X--X--X--X--X--|-X--X--X--X--X--X----X--|x3
Bb|-3--3--X--3--3--3--X--|-3--3--X--3--3--3----X--|
Gb|-2--2--X--2--2--2--X--|-2--2--X--2--2--2----X--|
Db|-0--0--X--0--0--0--X--|-0--0--X--0--0--0(2)-X--|
Ab|-0--0--X--0--0--0--X--|-0--0--X--0--0--0----X--|
Eb|-3--3--X--3--3--3--X--|-3--3--X--3--3--3(0)-X--|


Repeat Chorus


~~~~~~~~~~~~~~~~~~~~~~~~~~~~~~~~~~~~~~~~~~~~~~~~~~
Lyrics:

I'm desperate to know how you are 
I hope you're deep asleep 
I've been awake for days 
Trying to study every inch of your body 

And in this picture, 
But I can safely say, 
Nothing in this world can tell me tell me anyway 
But like a dream you disappeared without a sound, 
without a trace... 

Sleep well darling, 
Wherever you are, I hope that you're happy tonight 
And maybe you found someone to love you right 
Sleep well darling 
I'm desperate to say now I need you more than ever 
But all I can say is goodnight 

This is for a girl back home 
She tore down all my walls 
Left me for all she'd known 
But I pushed it all away from me 
And no no, even if I knew, even if I knew what to say to you 
Its just too late to make you stay 
I'm sick of fighting this broken fate 

Someone else gets to tell you that you're beautiful... 

Sleep well darling, 
Wherever you are, I hope that you're happy tonight 
And maybe you found someone to love you right 
Sleep well darling 
I'm desperate to say now I need you more than ever 
But all I can say is goodnight 

It's the last thing I want, but its all that I got 
It's the last thing I need, but I still carry you in my heart, 
In my heart... (x2) 

Sleep well darling, 
Wherever you are, I hope that you're happy tonight 
And maybe you found someone to love you right 
Sleep well darling, 
I'm desperate to say now I need you more than ever 
But all I could say was goodnight....
~~~~~~~~~~~~~~~~~~~~~~~~~~~~~~~~~~~~~~~~~~~~~~~~~~

Footnotes:
*1)Optional G
*2)Optional Slide to A
*3)Optional Bm Pickup/Slide
*4)Hard to reach, I use 3rd finger
*5)Optional Slide
*6)The second repeat has a triple strum, instead of double
*7)Play only on the third repeat

Enjoy.





Comments


Popular Daphne Loves Derby tabs & chords
A Year On An Airplane Chords
Bedroom 1 Chords
Birthday Gallery Chords
Closing Down The Pattern Department Chords
Cue The Sunmoon Test Chords
I Wish You Knew This Song Was About You 1 Chords
Midnight Highway Chords
That's Our Hero Shot Chords
Hopeless Love 1 Tabs
Tennis Court Soundtrack Tabs


Song lyrics



↑ Back to top | Tablatures and chords are parodies/interpretations of the original songs. You may use it for private study, scholarship, research or language learning purposes only
© 2014 AZChords.com Contact us | Privacy policy | DMCA | Add/correct tabs | Request tabs | Top 50 tabs