» » »

Daphne Loves Derby, I Wish You Knew This Song Was About You Chords (ver.2)

Artists:  A B C D E F G H I J K L M N O P Q R S T U V W X Y Z # 

I Wish You Knew This Song Was About You Chords (ver.2)

Daphne Loves Derby Tabs
Rating:
0/5 (0 votes)
I Wish You Knew This Song Was About You lessons Tabs too difficult? Try these video lessons and learn fast
                I Wish You Knew This Song Was About You - Daphne Loves Derby


Capo 3
Standard Tuning

    D      G      Em     A    Asus4  Asus4#5  Bm
e|--2------3------0------0------0------x------2---|
B|--3------3------0------2------3------3------3---|
G|--2------0------0------2------2------2------4---|
D|--0------0------2------2------2------3------4---|
A|--x------2------2------0------0------0------2---|
E|--x------3------0------x------x------x------x---|

/ - slide up



Verse:

            D       G
This bedroom light distracts my stare
  Em              G               A            Asus4          D
I find it hard to keep still when everything is so still, like this
       G                       Em              G
I won’t have to wait for long before I start to see that
           A            Asus4
You’re the only thing that was




Chorus(1st guitar):

         D                       G
Will you stay, keep this evening calm
                          D
I’ll shield you from this night
                     Asus4  Asus4#5
I’ll make everything alright


         D                     G
Will you make sure the door is locked
                D
We won’t have to talk
                  Asus4  A  Asus4#5
As long as you are here with me
 Bm
Again



Chorus(2nd guitar):

e|--13-12------|--13-12---------------|--13-12------|--13-12--------------|
B|-------------|--------13-11-10-/10--|-------------|--------13-11-10-10--|
G|-------------|----------------------|-------------|---------------------|
D|-------------|----------------------|-------------|---------------------|
A|-------------|----------------------|-------------|---------------------|
E|-------------|----------------------|-------------|---------------------| x2
            

comments powered by Disqus
↑ Back to top | Daphne Loves Derby Chords for I Wish You Knew This Song Was About You. Lyrics for acoustic guitar and electric guitar. Tablatures and chords are parodies/interpretations of the original songs. You may use it for private study, scholarship, research or language learning purposes only