» » »

Danzig, I Luciferi Tabs (ver.2)

Artists:  A B C D E F G H I J K L M N O P Q R S T U V W X Y Z # 

I Luciferi Tabs (ver.2)

Danzig Tabs
 Rating:
4/5 (4 votes)
I Luciferi lessons Tabs too difficult? Try these video lessons and learn fast
                %%%%%%%%%%%%%%%%%%%%%%%%%%%%%%%%%%%%%%%%%%%%%%%%%%%%%%%%%%%%%%%%%%%%%%%%%%%%%
%%%%%%%%%%              DANZIG 777: I LUCIFERI (2002)              %%%%%%%%%%
%%%%%%%%%%%%%%%%%%%%%%%%%%%%%%%%%%%%%%%%%%%%%%%%%%%%%%%%%%%%%%%%%%%%%%%%%%%%%

[Disclaimer:  All basses and guitars tuned as noted.  All chords used are
              power chords (e.g., C# is -x-4-6-6-x-x-) unless otherwise
              indicated.  These fan-authored transcriptions offer the basic
              chords and structure of the songs, and are not complete scores.
              Although some transcriptions may not have distinct parts for
              each instrument, all are written for both bass and guitar.]

[Notes:       For songs tuned two steps down (low to high, C F Bb Eb G C),
              the notes/chords will sound two steps lower than notated.  For
              example, a chord marked "A" will actually sound like a "F".]

UNENDLICH
(untranscribed)


BLACK MASS - two steps down
transcription: OJ, Ryq

   main riff:
C |---------------------------------|---------------------------------|
G |---------------------------------|---------------------------------|
Eb|-----4-----2---------------------|-----4-----2---------------------|
Bb|-----------------5-----3-3-3-3-3-|-----------------3-----3-3-3-3-3-|
F |-2---------------------3-3-3-3-3-|-2---------------------3-3-3-3-3-|
C +-0-------0-----0-------1-1-1-1-1-|-0-------0-----0-------1-1-1-1-1-+
  |                       pm ----->                         pm -----> |
  |                                                                   |
Eb+---------------------------------|---------------------------------+
Bb|---------------------------------|---------------------------------|
F |---------------------------------|---------------------------------|
C |-0---7-----5-----3-----1-1-1-1-1-|-0---7-----5-----1-----1-1-1-1-1-|


   chorus:
C |---------------------------------|---------------------------------|
G |---------------------------------|---------------------------------|
Eb|-9--------------10---------------|-9--------------10-------7-------|
Bb|-9--------------10---------------|-9--------------10-------7-------|
F |-7---------------8---------------|-7---------------8-------5-------|
C |---------------------------------|---------------------------------|

-songflow-
 main   (4x)
 main   (4x)
 verse  (4x)
 chorus (2x)
 main   (2x)
 verse  (4x)
 main   (2x) w/whispering
 main   (4x) w/solo
 chorus (4x)
 main   (2x)
 main   (2x)
 E


WICKED PUSSYCAT - half-step down
transcription: Ryq

   intro/main riff/chorus riff:          verse riff 1:
Eb|---------------------------------|   |---------------------------------|
Bb|---------------------------------|   |---------------------------------|
Gb|-------------AH--------------AH--|   |---------------------------------|
Db|-2-----------2-----2---------2---|   |---------------------------------|
Ab|-2-----------------2-------------|   |-2-----2-5---2-----2---2-5---5---|
Eb+-0-----0-3p0-------0---0-3p0-----+   +-0-----0-3---0-----0---0-3---3---+
  |                                 |   |                                 |
  |                                 |   |                                 |
Gb+---------------------------------+   +---------------------------------+
Db|---------------------------------|   |---------------------------------|
Ab|---------------------------------|   |---------------------------------|
Eb|---------------------------------|   |-0-----0-3---0-----0---0-3---3---|

   verse riff 2:                         post-chorus/outro riff:
Eb|---------------------------------|   |---------------------------------|
Bb|---------------------------------|   |---------------------------------|
Gb|---------------------------------|   |---------------------------------|
Db|---------7---6-----------7---6---|   |-7-------6-------6-------4-------|
Ab|-2-----2-5---4-----2---2-5---4---|   |-9-------7-------7-------5-------|
Eb+-0-----0-----------0---0---------+   +10-------9-------9-------7-------+
  |                                 |   |                                 |
  |                                 |   |                                 |
Gb+---------------------------------+   +---------------------------------+
Db|---------------------------------|   |---------------------------------|
Ab|---------5---4-----------5---4---|   |-5-------4-------4-------2-------|
Eb|-0-----0-----------0---0---------|   |---------------------------------|

Note:  The "meowing" guitar notes are reverse bends.  The post-chorus riff
       is most prominent during the outro.

-songflow-
 intro        (8x)
 verse riff 1 (4x)
 verse riff 1 (4x)
 verse riff 2 (4x)
 chorus       (4x)
 post-chorus  (2x)
 verse riff 1 (8x)
 verse riff 2 (4x)
 chrous       (4x)
 post-chorus  (2x)
 verse riff 1 (4x) w/ "meow" notes
 verse riff 1 (4x)
 verse riff 2 (4x)
 chorus       (4x)
 chorus       (4x)
 post-chorus  (4x)
 post-chorus  (2x)
 D


GOD OF LIGHT - half-step down
transcription: Ryq

   interlude:
Eb|---------------------------------|---------------------------------|
Bb|---------------------------------|---------------------------------|
Gb|---------------------------------|---------------------------------|
Db|---------------------------------|---------------------------------|
Ab|-7-----5-------------------------|-7-----5-------------------------|
Eb|-------------7-----5-----3---0---|-------------7-----5-----3-------|

   interlude (con't):
Eb|---------------------------------|---------------------------------|
Bb|---------------------------------|---------------------------------|
Gb|---------------------------------|---------------------------------|
Db|---------------------------------|---------------------------------|
Ab|-7-----5-------------------------|-7-----5-------------------------|
Eb|-------------7-----5-----3---0---|-------------1-------------------|

-songflow-


LIBERSKULL - two steps down
transcription: Ryq

   main riff:
C |---------------------------------|---------------------------------|
G |---------------------------------|---------------------------------|
Eb|---------------------------------|---------------------------------|
Bb|---------------------------------|---------------------------------|
F |---------------------------------|---------------------------------|
C |-0-3---0-5---0-6---0-7---0--10---|-0-3---0-5---0-6---0-7---1-------|

Note:  Each fretted note of the main riff is bent up 1/4 step.

-songflow-
 main      (4x)
 C C#      (8x)
 A A#      (4x)
 C C#      (4x)
 F C C# A# (4x)
 main      (2x)
 C C#      (8x)
 A A#      (4x)
 C C#      (4x)
 F C C# A# (4x)
 main      (4x)
 C C#      (8x) w/ solo
 A A#      (4x)
 C C#      (4x)
 F C C# A# (8x)
 main      (8x)


DEAD INSIDE - half-step down
transcription: Dab

   main riff:
Eb|----------------0----------------|---------------------------------|
Bb|--------------------1------------|----------------------------0----|
Gb|------------2-----------2--------|---------2--------------2--------|
Db|--------2-------------------2----|-----2--------------2------------|
Ab|-0-------------------------------|---------------------------------|
Eb|---------------------------------|-1-----------0-------------------|

   chorus:
Eb|---------5^AH--------------5^AH--|---------5^AH--------------------|
Bb|---------5^AH--------------5^AH--|---------5^AH--------------------|
Gb|---------------------------------|---------------------------------|
Db|-7-7-7-7-----------7-7-7-7-------|-7-7-7-7-----------8---8---8-----|
Ab|-7-7-7-7-----------7-7-7-7-------|-7-7-7-7-----------8---8---8-----|
Eb|-5-5-5-5-----------5-5-5-5-------|-5-5-5-5-----------6---6---6-----|
    pm --->           pm --->

   break:
Eb|---------------------------------|---------------------------------|
Bb|---------------------------------|---------------------------------|
Gb|---------------------------------|---------------------------------|
Db|-9-8-9-8-------------------------|-9-8-9-8-------------------------|
Ab|-7-6-7-6-8--7--------3-------3---|-7-6-7-6-8--7---------3--------3-|
Eb|---------6--5---0000-1--0000-1---|---------6--5---0--1--1--0--1--1-|
                   pm->    pm->                      pm pm    pm pm

   solo:
Eb|---------------------------------|------------------------10~------|
Bb|---------------------------------|----------------------8----------|
Gb|---------------------------------|---5-9~---9/10/9-9~--------------|
Db|------------------------/7~------|-7-------------------------------|
Ab|-------7-8-7-5-3-5-3-2-----------|---------------------------------|
Eb|-/5~-----------------------------|---------------------------------|

Eb|-8-7-8-10-10^-10-8-7-------------|---------------------------------|
Bb|---------------------10~---------|-20^---20-20-20~-----------------|
Gb|---------------------------------|-------(hold the-bend------------|
Db|---------------------------------|--------on these 3 notes)--------|
Ab|---------------------------------|---------------------------------|
Eb|---------------------------------|---------------------------------|

Eb|-20-19----19-20-19-17------------|---------------------------------|
Bb|-------22-------------18-17-18---|-17-13-12~---13-12h13p13-10~-----|
Gb|---------------------------------|---------------------------------|
Db|---------------------------------|---------------------------------|
Ab|---------------------------------|---------------------------------|
Eb|---------------------------------|---------------------------------|

Eb|----12-15-20-15-17~--------------|-20-19----19-19----20-19-20-22^--|
Bb|-13------------------------------|-------22-------22---------------|
Gb|---------------------------------|---------------------------------|
Db|---------------------------------|---------------------------------|
Ab|---------------------------------|---------------------------------|
Eb|---------------------------------|---------------------------------|

Eb|-20-19-16h17p16-17~-----12/13-12~|---------------------------------|
Bb|---------------------------------|---------------------------------|
Gb|---------------------------------|---------------------------------|
Db|---------------------------------|---------------------------------|
Ab|---------------------------------|---------------------------------|
Eb|---------------------------------|---------------------------------|

-songflow-
 main   (4x)
 main   (20x)
 chorus (4x)
 main   (8x) w/distortion
 chorus (4x)
 break  (2x)
 main   (8x) w/solo
 chorus (8x)
 A


KISS THE SKULL - two steps down
transcription: Ryq

   main riff:
C |-------------------------|-------------------------|
G |-------------------------|-------------------------|
Eb|-------------------------|-------------------------|
Bb|-2---2-------------------|-2---2-------------------|
F |-2---2-------------------|-2---2-------------------|
C |-0---0-0---0-0---0-0---0-|-0---0-0---0-0-0-0-0---0-|
          pm ------------->         pm ------------->

   pre-chorus ("whoa"):
C |-------------------------|-------------------------|
G |-------------------------|-------------------------|
Eb|-------------------------|-------------------------|
Bb|-5-----------------7-----|-2---2-------------------|
F |-5-----------------7-----|-2---2-------------------|
C |-3-----------------5-----|-0---0-0---0-0-0-0-0---0-|
                                    pm ------------->

   pre-chorus ("yeah"):
C |-------------------------|-------------------------|
G |-------------------------|-------------------------|
Eb|-------------------------|-------------------------|
Bb|-2---2-------------------|-2---2-------------------|
F |-2---2-------------------|-2---2-------------------|
C |-0---0-0---0-0-0-0-0---0-|-0---0-0---0-0-0-0-0---0-|
          pm ------------->         pm ------------->

   chorus:
C |-------------------------|-------------------------|
G |-------------------------|-------------------------|
Eb|-------------------------|-------------------------|
Bb|-2-/-5---2---7-----5-----|-2---2-------------------|
F |-2-/-5---2---7-----5-----|-2---2-------------------|
C |-0-/-3---0---5-----3-----|-0---0-0---0-0-0-0-0---0-|
                                    pm ------------->
   chorus end:
C |-------------------------|-------------------------|
G |-------------------------|-------------------------|
Eb|-------------------------|-------------------------|
Bb|-2-/-5---2-----5---------|(5)----------------------|
F |-2-/-5---2-----5---------|(5)----------------------|
C |-0-/-3---0-----3---------|(3)----------------------|

-songflow-
 main   (4x)
 main   (6x)
 whoa   (4x)
 yeah   (2x)
 main   (6x)
 whoa   (4x)
 yeah   (2x)
 chorus (3x)
 chorus end
 yeah   (2x)
 main   (6x)
 whoa   (4x)
 yeah   (2x)
 chorus (7x)
 chorus end
 fade out on main riff...


I LUCIFERI - two steps down
transcription: Ryq

   intro/outro:
C |-------------------------|-------------------------|
G |-------------------------|-------------------------|
Eb|-------------------------|-------------------------|
Bb|-------------------------|-------------------------|
F |/10--9-10-9--10-------/5-|-----4--5--4--5--8-------|
C |-------------------------|-------------------------|

   verse riff:
C |-------------------------|-------------------------|
G |-------------------------|-------------------------|
Eb|-------------------------|-------------------------|
Bb|-------------------------|-------------------------|
F |--2-----2--2--2-----2--2-|--2----------------------|
C +--0-----0--0--0-----0--0-|--0-----6^---------------+
  |  pm ------------------>    pm                     |
  |                                                   |
Eb+-------------------------|-------------------------+
Bb|-------------------------|-------------------------|
F |-------------------------|-------------------------|
C |--0-----0--0--0-----0--0-|--0-----0--0--0-----0--0-|

   chorus:
C |-------------------------|-------------------------|
G |-------------------------|-------------------------|
Eb|--9----------------------|-------10----------12----|
Bb|--9----------------------|-------10----------12----|
F |--7----------------------|--------8----------10----|
C +--------------0-----0--0-|--0----------------------+
  |                                                   |
  |                                                   |
Eb+-------------------------|-------------------------+
Bb|-------------------------|-------------------------|
F |-------------------------|-------------------------|
C |--0-----0--0--0-----0--0-|--0-----0--0--0-----0--0-|


-songflow-
 intro   (4x)
 verse   (4x) 
 verse   (8x)
 chorus  (4x)
 verse   (8x)
 chorus  (8x)
 verse   (4x) w/solo
 verse   (8x)
 chorus (16x) (on last repeat, end on F chord)
 fade out on intro


NAKED WITCH - one step down
transcription: Ryq

  riff A:
D|---------------------------------|---------------------------------|
A|-4p2-0h2-0-----------------------|-4p2-0h2-0-----------------------|
F|---------------------------------|---------------------------------|
C|---------------------------------|---------------------------------|
G|---------------2---2---2-5---7---|---------------2---2---2-5-------|
D|---------------0---0---0-3---5---|---------------0---0---0-3-------|
                 pm------>                         pm------>

  riff B:
D|---------------------------------|---------------------------------|
A|---------------------------------|---------------------------------|
F|---------------------------------|---------------------------------|
C|---------AH----------------------|---------AH----------------------|
G|-2-2-----7-----2---2---2-5---7---|-2-2---2-7-----2---2---2-5-------|
D|-0-0---0-------0---0---0-3---5---|-0-0---0-------0---0---0-3-------|
   pm---->       pm------>           pm---->       pm------>

  riff C:
D|---------------------------------|
A|---------------------------------|
F|---------------------------------|
C|-2-------------------------------|
G|-2---------------------------5---|
D|-0---------------------------5---|

  riff D:
D|---------------------------------|---------------------------------|
A|---------------------------------|---------------------------------|
F|---------------------------------|---------------------------------|
C|-2-----------9---8---5---7---5---|-7-------5-------2-------3-------|
G|-2-----------9---8---5---7---5---|-7-------5-------2-------3-------|
D|-0-----------7---6---3---5---3---|-5-------3-------0-------1-------|

-songflow-
(coming soon)


ANGEL BLAKE - half-step down
transcription: Myke Havoc

   main riff:
Eb|-------0---0-0--|-------0---0-0--|-------0---0-0--|-----0----------|
Bb|-------0---0-0--|-------0---0-0--|-------0---0-0--|-----0----------|
Gb|-------0---0-0--|-------5---5-5--|-------4---4-4--|-----5----------|
Db|-------2---2-2--|----5--5---5-5--|----4--4---4-4--|-----5----------|
Ab|----2--2---2-2--|-3-----3---3-3--|-2-----2---2-2--|-3---3----------|
Eb+-0-----0---0-0--|----------------|----------------|---2---2--------+
  |                                                                   |
  |                                                                   |
Gb+----------------|----------------|----------------|----------------+
Db|----------------|----------------|----------------|----------------|
Ab|----------------|----------------|-2--------------|----------------|
Eb|-0--------------|-3--------------|----------------|-3--------------|

   chorus:
Eb|----------------|----------------|----------------|----------------|      
Bb|----------------|----------------|----------------|----------------|      
Gb|--9---9------7--|--10----10------|--9--9----------|----------------|      
Db|--9---9------7--|--10----10------|--9--9----------|----------------|      
Ab|--7---7------5--|---8-----8------|--7--7----------|----------------|      
Eb+----------------|----------------|----------------|----------------+      
  |                                                                   |
  |                                                                   |
Gb+----------------|----------------|----------------|----------------+      
Db|----------------|----------------|----------------|----------------|       
Ab|--7---7------5--|---8-----8------|--7--7----------|----------------|         
Eb|----------------|----------------|----------------|----------------|

   Chorus end:
Eb|----------------|----------------|----------------|----------------|      
Bb|----------------|----------------|----------------|----------------|      
Gb|--9---9------7--|--10----10------|----------------|----------------|      
Db|--9---9------7--|--10----10------|----------------|----------------|      
Ab|--7---7------5--|---8-----8------|-3---3----------|-3---3----------|      
Eb+----------------|----------------|---2---2--------|---2---2--------+      
  |                                                                   |
  |                                                                   |
Gb+----------------|----------------|----------------|----------------+      
Db|----------------|----------------|----------------|----------------|      
Ab|--7---7------5--|---8-----8------|----------------|----------------|      
Eb|----------------|----------------|----------------|----------------|
      
   solo:
Eb|-19----15-------|-17----15-------|-14----14-------|-15----17-------|
   solo cont'd:
Eb|-19----15-------|-17----15-------|-14----14-------|-15----14-------|

-songflow-
main riff   (2x) guitar only
main riff   (4x)
main riff   (2x)
main riff   (4x)
chorus      (3x)
chorus end      
main riff   (2x) w/solo
main riff   (4x)
chorus      (3x)
chorus end
chorus      (3x)
chorus end
E


THE COLDEST SUN - two steps down
transcription: Ryq

   intro/chorus:
C |---------------------------------|---------------------------------|
G |---------------------------------|---------------------------------|
Eb|-9---------------5---------------|---------------------------------|
Bb|-9---------------5---------------|-5---------------7---------------|
F |-7---------------3---------------|-5---------------7---------------|
C |---------------------------------|-3---------------5---------------|

   verse (synth arranged for guitar):
C |---------------------------------|---------------------------------|
G |---------------------------------|---------------------------------|
Eb|-------7---------------7---------|-----------------------7---------|
Bb|-9---------------7---------------|-9-------7-------9---------------|
F |---------7---------------7-------|-------------------------7-------|
C |---------------------------------|---------------------------------|

   "heavy":
C |-----------------|
G |-----------------|
Eb|-9-9-----9---7---|
Bb|-9-9-----9---7---|
F |-7-7-----7---5---|
C |-----------------|

-songflow-
 hi-hat...
 intro  (2x)
 verse  (1x)
 heavy  (8x)
 verse  (1x)
 heavy  (8x)
 chorus (4x)
 heavy  (8x)
 verse  (1x)
 heavy  (8x)
 chorus (6x)
 E
 chorus (1x)
 E


HALO GODDESS BONE - two steps down
transcription: Ryq

verse:    e  f  g  e   f g
chorus 1: e d f e
chorus 2: e c e f


WITHOUT LIGHT, I AM - two steps down
transcription: Ryq

   riff:
C |---------------------------------|
G |---------------------------------|
Eb|---------------------------------|
Bb|---9-8---7---------9-8---7-------|
F |/7-----9------/7-------9-----8---|
C |---------------------------------|

Notes:  Lower-case notes are single notes, not chords.

-songflow-
 E   G F# E D# (4x)
 e   g f# e d# (4x)
 e   g f# e d# (4x)
 riff (4x)
 E   G F# E D# (4x)
 e   g f# e d# (4x)
 e   g f# e d# (4x) (w/guitar playing E power chord)
 riff (4x)
 E   G F# E D# (4x)
 C#   d# e A   d# e  (repeat until fade)
            
Submit corrections

comments powered by Disqus
↑ Back to top | Danzig Tabs for I Luciferi. Lyrics for acoustic guitar and electric guitar. Tablatures and chords are parodies/interpretations of the original songs. You may use it for private study, scholarship, research or language learning purposes only