» » »

Danzig, Godless Tabs (ver.1)

Artists:  A B C D E F G H I J K L M N O P Q R S T U V W X Y Z # 

Godless Tabs (ver.1)

Danzig Tabs
 Rating:
3.8/5 (5 votes)
Godless lessons Tabs too difficult? Try these video lessons and learn fast
1
                -------------------------------------------------------------------------------
                         Godless-Danzig
-------------------------------------------------------------------------------

Tuning: Tune a half step down


It's Pretty Basic Stuff But The Timing Can Be A Little Tricky
Pay Attention to the CD and it should be no problem

 
    Riff 1

    Pick Scr*pe             Play 6 times then play part 2
e|---------------------------------------------------------------------------|
B|---------------------------------------------------------------------------|
G|---------------------------------------------------------------------------|
D|----------------10H12----12--12-12-12--10H12----12--12-12-12---------------|
A|--/---/---------10-------10--10-10-10--10-10----10--10-10-10---------------|
E|--/---/--------------------------------------------------------------------|




   Riff 2        Dive the 2 notes with bar
e|------------3--------------------------------------------------------------|
B|------------3--------------------------------------------------------------|
G|---------------------------------------------------------------------------|
D|---------------------------------------------------------------------------|
A|----0----------------------------------------------------------------------|
E|---------------------------------------------------------------------------|




   Riff 3                         Repeat 8 Times
e|---------------------------------------------------------------------------|
B|---------------------------------------------------------------------------|
G|---------------------------------------------------------------------------|
D|-----7H9-9-9-9-9------7H9-9-9-9-9------7H9-9-9-9-9------12--12-12-12-------|
A|-----7---7-7-7-7------7---7-7-7-7------7---7-7-7-7------10--10-10-10-------|
E|---------------------------------------------------------------------------|



                  With Bar
  Riff 4          ~~~~~~~~        Slide        Play 4 Times
e|---------------------------------------------------------------------------|
B|---------------------------------------------------------------------------|
G|--12--------12------------------3\\\\\8------------------------------------|
D|--12------12--------------------3\\\\\8------------------------------------|
A|--10-----------------------------------------------------------------------|
E|---------------------------------------------------------------------------|



                                            This is probably done with a bar
  Riff 5                                Pre-Bend note at 7th fret and release        
e|---------------------------------------------------------------------------|
B|---------------------------------------------------------------------------|
G|---------------------------------------------------------------------------|
D|--2---------------2---------------2--------------------7B9---9R7-----------|
A|--2---------------2---------------2----------------------------------------|
E|--0---------------0---------------0----------------------------------------|




   Riff 6
e|---------------------------------------------------------------------------|
B|---------------------------------------------------------------------------|
G|---------------------------------------------------------------------------|
D|------7H9-9-9-9-9----------------------------------------------------------|
A|------7---7-7-7-7----------------------------------------------------------|
E|---------------------------------------------------------------------------|



Spoken Intro Played With Riff 5

Godless feeling in me
Night after night
Whoa, godless feeling in me
Born of their lies
Oh, oh, yea

Break
Play Riff 6, 7 Times

Verse Played With Riff 3

You gave me all of this and more, yea, that's for sure
I can't believe in all your pain
Under the draining of a Christian diety's blood
You tell your children they're insane, yea


Chorus Played with Riff 4

I couldn't love it anymore
I had to listen to my heart
I couldn't take it anymore
And so you leave me godless


Solo Break Backed by Riff 3

Second Verse Continues With Riff 3

Just spread your tentacles of hate around my life
I've taken more than you could ever give
You can't believe that someone challenges your right
I'm gonna send you back your pain

Second Chorus With Riff 4

Yea
I couldn't love it anymore
I had to listen to my heart
I couldn't take it anymore
And so you leave me godless

Second Spoken Part
 Played with Riff 5
 
I ask all who have gathered here
To join me
In this feast
May we always be strong in body
Spirit
And mind
And all those
Who would try
To harm us
Let them be cast aside
Oh


| /  slide up
| \  slide down
| h  hammer-on
| p  pull-off
| ~  vibrato
| +  harmonic
| x  Mute note
===============================================================================
            
Submit corrections

comments powered by Disqus
↑ Back to top | Danzig Tabs for Godless. Lyrics for acoustic guitar and electric guitar. 1 Tablatures and chords are parodies/interpretations of the original songs. You may use it for private study, scholarship, research or language learning purposes only