» » »

Danzig, Black Angel, White Angel Tabs (ver.1)

Artists:  A B C D E F G H I J K L M N O P Q R S T U V W X Y Z # 

Black Angel, White Angel Tabs (ver.1)

Danzig Tabs
 Rating:
4/5 (4 votes)
Black Angel, White Angel lessons Tabs too difficult? Try these video lessons and learn fast
                ----------------------------------------------------------------------------
                             BLACK ANGEL WHITE ANGEL - Danzig
----------------------------------------------------------------------------

Tuning: Eb Standard

One of my favorite Danzig tunes. This song proves that he's still got it. Sadly, this 
is not only underrated, but tabbed incorrectly on this site.
NOTE: I didn't really check timing on this tab, so you'll have to listen to the song for 
The notes are there though.


Intro/Chorus/Outro Riff
eb|----------------------------------------------------------------|
Bb|----------------------------------------------------------------|
Gb|----------------------------------------------------------------|
Db|----------------------------------------------------------------|
Ab|-7-------5-7-7-------5-7-4-----4-----4-------4------------------|
Eb|-5-000---3-5-5-000---3-5-2-0-0-2-0-0-2-0-0-0-2-0-0--------------|
  P.M.--          ---         ---- ----   -----   ---

Verse Rhythm
e|-------------------------------------------------------------------|
B|-------------------------------------------------------------------|
G|-------------------------------------------------------------------|
D|-------------------------------------------------------------------|
A|-7-7-7-7-7-7-7-7-7-7-7-7-7-7-7-7-5-5-5-5-5-5-5-5-5-5-5-5-5-5-5-5---|
E|-5-5-5-5-5-5-5-5-5-5-5-5-5-5-5-5-3-3-3-3-3-3-3-3-3-3-3-3-3-3-3-3---|
 P.M.----------------------------------------------------------------|

Verse Lead
e|--------------------------------------|
B|--------------------------------------|
G|--------------------------------------|
D|-7-7-7-5-5-5-7-7-7-5-5-5-7-7-5-5------|
A|--------------------------------------|
E|--------------------------------------|
 P.M------------------------------------|


Outro Chorus Lead 1: Played after the first half of the chorus rhythm.
e|------------------------------------------|
B|------------------------------------------|
G|------------------------------------------|
D|-----3---3-3---3-------3-3----------------|
A|-3-5-5-5-5-5-5-5-5-5-5-5-5----------------|
E|------------------------------------------|
  P.M--  -    --   -------------------------|

Outro Chorus Lead 2
e|----------------------------------------|
B|-11b13r11b14r11b12r11~~~~~~~~-----------|
G|----------------------------------------|
D|----------------------------------------|
A|----------------------------------------|
E|----------------------------------------|

I don't know the bend at the end, but this should suffice. Thank you. DANZIG FOREVER!!!!

| /  slide up
| \  slide down
| h  hammer-on
| p  pull-off
| ~  vibrato
| +  harmonic
| x  Mute note
============================================================================
            
Submit corrections

comments powered by Disqus
↑ Back to top | Danzig Tabs for Black Angel, White Angel. Lyrics for acoustic guitar and electric guitar. Tablatures and chords are parodies/interpretations of the original songs. You may use it for private study, scholarship, research or language learning purposes only