» » »

Danny Elfman, What's This? Tabs (ver.1)

Artists:  A B C D E F G H I J K L M N O P Q R S T U V W X Y Z # 

What's This? Tabs (ver.1)

Danny Elfman Tabs
Rating:
0/5 (0 votes)
Hard to play? Try these video lessons and learn fast.
                

E|------------------------------------------------------------|
B|------------------------------------------------------------|
G|-11-10---------11-10-13-11-13-12---------11-10-13-11-13-9---|
D|---------9-8-----------------------9-8----------------------|
A|------------------------------------------------------------|
E|------------------------------------------------------------|

E|------------------------------------------------------------|
B|------------------------------------------------------------|
G|-------11-10-13-11-13-12---13-12---13-12-10-9-10-7----------|
D|-9-8--------------------------------------------------------|
A|------------------------------------------------------------|
E|------------------------------------------------------------|

E|------------------------------------------------------------|
B|--/11---10-11-10h11-11h13-14---14-12-11-9-7-5---6-7---------|
G|------------------------------------------------------------|
D|------------------------------------------------------------|
A|------------------------------------------------------------|
E|------------------------------------------------------------|

E|------------------------------------------------------------|
B|--/12-12-13-12------15--------------------------------------|
G|-----------------12------14-12---12-11-9--------------------|
D|-----------------------------------------12-11--------------|
A|-------------------------------------------------12-10------|
E|-------------------------------------------------------12-11|


and thats it! enjoy, play it with your friends.
            

comments powered by Disqus
↑ Back to top | Danny Elfman Tabs for What's This?. Lyrics for acoustic guitar and electric guitar. Tablatures and chords are parodies/interpretations of the original songs. You may use it for private study, scholarship, research or language learning purposes only