» » »

Danny Elfman, Oogie Boogie Song Bass tabs (ver.1)

Artists:  A B C D E F G H I J K L M N O P Q R S T U V W X Y Z # 

Oogie Boogie Song Bass tabs (ver.1)

Danny Elfman Tabs
Rating:
0/5 (0 votes)
Oogie Boogie Song lessons Tabs too difficult? Try these video lessons and learn fast
                Intro (4th note)
G|----------------------------------------------------------|
D|---------------0-0----------------------------------------|
A|-2-3-2-3-4-4-----0-0-0-2-2-2-3-3--------------------------|
E|----------------------------------------------------------|

Verse 1 (mixture of 8th and 4th notes)
G|----------------------------------------------------------|
D|------------------0---0-2-3-------------------------------|
A|-4-4-4-4-4-4-4---4---------0-3-0-3------------------------|
E|----------------------------------------------------------|
X2
G|------------------------------------------------------|
D|------------------------------------------------------|
A|------------------------------------------------------|
E|-3-2-4-3-3-2-4-3-0-5-4-3-0-5-4-3----------------------|

G|------------------------------------------------------|
D|------------------------------------------------------|
A|---3-4------3-4--------0-3----------------------------|
E|-0------0-0------0---1------0-0-0-0-0-----------------|

G|------------------------------------------------------|
D|-------------------0-0--------------------------------|
A|--4-4-4-4-4-4-4-----4-4-4-4-4-4-4---------------------|
E|------------------------------------------------------|
X2
G|------------------------------------------------------|
D|------------------------------------------------------|
A|------------------------------------------------------|
E|-3-2-4-3-3-2-4-3-0-5-4-3-0-5-4-3----------------------|
Chorus (8th note)
G|-------------------------------------------------------|
D|-------------------------------------------------------|
A|------3-3-----1-1-----3-3-----1------------------------|
E|-1-1------1-1-----3-3-----1-1---3----------------------|
X2
Verse 2 (Same as Verse 1)

That’s the bassline for the Oogie Boogie Song from Nightmare Before Christmas. Hope you 
enjoy playing it. I made this after looking at the official sheet music. Note this is 
the one from the movie.
            
Submit corrections

comments powered by Disqus
↑ Back to top | Danny Elfman Bass for Oogie Boogie Song. Lyrics for acoustic guitar and electric guitar. Tablatures and chords are parodies/interpretations of the original songs. You may use it for private study, scholarship, research or language learning purposes only