» » »

Danny Elfman, Little Alice Tabs (ver.1)

Artists:  A B C D E F G H I J K L M N O P Q R S T U V W X Y Z # 

Little Alice Tabs (ver.1)

Danny Elfman Tabs
Rating:
0/5 (0 votes)
Little Alice lessons Tabs too difficult? Try these video lessons and learn fast
                                                 Little Alice                                   


                                                                    Danny Elfman



short and easy tab for beginners, it sounds nice though.
You can also find Alice's Theme in my contributions.


                    
E||-----------0--------|---------------3----|--L----------------|
B||--------------------|--3-----------------|-------------------|
G||--2-----------------|--------------------|-------------------|
D||--------------------|--------------------|-------------------|
A||--------------------|--------------------|-------------------|
E||--------------------|--------------------|-------------------|


   
--7--8--10------------|--8----------------|--10----8----10----8----|
----------------------|-------------------|------------------------|
----------------------|-------------------|------------------------|
----------------------|-------------------|------------------------|
----------------------|-------------------|------------------------|
----------------------|-------------------|------------------------|


               
--7----------------|--------------------|-------------------|
-------------------|--------------------|--2----------------|
-------------------|-----------4--------|-------------------|
-------------------|--4--------4--------|-------------------|
-------------------|--2-----------------|-------------------|
-------------------|--------------------|-------------------|


  D                            E                               
        
--2----------------|-----------0--------|---------------------|
--3----------------|--2--------0--------|------------0--------|
--2----------------|-----------1--------|--1----2-------------|
--0----------------|-----------2--------|---------------------|
-------------------|-----------2--------|---------------------|
-------------------|-----------0--------|---------------------|


                                            B/F#              
              
-----------2--------|--L-----------------|--2----------------|
--2-----------------|-----------2--------|--4----------------|
--------------------|--------------------|--4----------------|
-----------0--------|--L-----------------|--4----------------|
--------------------|--------------------|--2----------------|
--------------------|--------------------|--2----------------|


  D                    E                                         
       
-----------9--------|--7-------------------|--7--------9--------|
--7-----------------|--9--------9----10----|--------------------|
--7-----------------|--9-------------------|--------------------|
--7-----------------|----------------------|--------------------|
--5-----------------|--7-------------------|--------------------|
--------------------|----------------------|--------------------|


  D                            B/F#       
         
-------------------|--9--------2--------||
--7----------------|-----------4--------||
--7----------------|-----------4--------||
--7----------------|-----------4--------||
--5----------------|-----------2--------||
-------------------|-----------2--------||


Please Rate if appreciated !
            

comments powered by Disqus
↑ Back to top | Danny Elfman Tabs for Little Alice. Lyrics for acoustic guitar and electric guitar. Tablatures and chords are parodies/interpretations of the original songs. You may use it for private study, scholarship, research or language learning purposes only