>
 >
Untitled 2

Untitled 2 Guitar Tabs

Daniel Wesley - Untitled 2 chords, tabs, tablatures, lyrics

Guitar lessons | Add/correct | Request | Top 50 tabs Artists:  A B C D E F G H I J K L M N O P Q R S T U V W X Y Z 0-9

Untitled 2 Guitar Tabs – Daniel Wesley

CD, Sheet music, Poster

Do you like Untitled 2? Share with your friends now
Tabs
			     Daniel Wesley - Untitled #2

Tuning: Standard

Another one of my favorite songs off Daniel Wesley's CD "Sing + Dance". It is played 
a distorted electric guitar, listen to the song for timing. Enjoi! :)

Intro/Verse:\
e|-x-x----5-x-5-5-5-5-5------2-x-2-2-2-2-2---|----5-x-5-5-5-5-5------2-x-2-2-2-2-2---|
B|-x-x----5-x-5-5-5-5-5------2-x-2-2-2-2-2---|----5-x-5-5-5-5-5------2-x-2-2-2-2-2---|
G|-x-x----6-x-6h7-7-7p6------2-x-2h4-4-4p2---|----6-x-6h7-7-7p6------2-x-2h4-4-4p2---|
D|-x-x-7~---x-5-5-5-5-5-\-4~---x-2-2-2-2-2-/-|-7~---x-5-5-5-5-5-\-4~---x-2-2-2-2-2-/-|
A|-x-x-7~---------------\-4~---------------/-|-7~---------------\-4~---------------/-|
E|-x-x-5~---------------\-2~---------------/-|-5~---------------\-2~---------------/-|
                                                 "My girl never    "She knows
                                                left me"   everyone I've had"

Chorus:
e|-----0~---------------3~---------------5-----|-5--5-5-5-2~-2-2-2-|
B|-----0~---------------3~-----------------5---|-5--5-5-5-2~-2-2-2-|
G|-----1~---------------3~-------------------6-|-6--6-6-6-2~-2-2-2-|
D|-----2~---------------5~---------------------|-7--7-7-7-4~-4-4-4-|
A|-----2~---------------5~---------------------|-7--7-7-7-4~-4-4-4-|
E|-----0~---------------3~---------------------|-5--5-5-5-2~-2-2-2-|
  "And I say    "Singin' songs           Never been lost
      yeah"           about the way"            before"

Solo:
e|-5~---5------2-|
B|-5~---5------2-|
G|-6~---6------2-|
D|-7~---7------4-|
A|-7~---7------4-|
E|-5~---5------2-|
"So I say
   yeah, yeah, yeah"

Outro:
e|-----0~---------------3~---------------5-----|-5--5-5-5-2~-2-2-2-|
B|-----0~---------------3~-----------------5---|-5--5-5-5-2~-2-2-2-|
G|-----1~---------------3~-------------------6-|-6--6-6-6-2~-2-2-2-|
D|-----2~---------------5~---------------------|-7--7-7-7-4~-4-4-4-|
A|-----2~---------------5~---------------------|-7--7-7-7-4~-4-4-4-|
E|-----0~---------------3~---------------------|-5--5-5-5-2~-2-2-2-|
  "And I say    "Singin' songs           Never been lost
      yeah"           about the way"            before"

e|-5--5--5----2~-|
B|-5--5--5----2~-|
G|-6--6--6----2~-|
D|-7--7--7----4~-|
A|-7--7--7----4~-|
E|-5--5--5----2~-|

Hope you liked it!

- Frazer.

| /  slide up
| \  slide down
| h  hammer-on
| p  pull-off
| ~  vibrato
| +  harmonic
| x  Mute note





Comments


Popular Daniel Wesley tabs & chords
Ooo Ohh Bass Tabs
It'll Be You Chords
Driftin' Tabs
Fade Me Tabs
Layde Maybe Tabs
Ooo Ohh 1 Tabs
So Fine Intro Tabs
Drunk Stoned Ukulele
Johnny Ukulele
My Pony Ukulele


Song lyrics



↑ Back to top | Tablatures and chords are parodies/interpretations of the original songs. You may use it for private study, scholarship, research or language learning purposes only
© 2014 AZChords.com Contact us | Privacy policy | DMCA | Add/correct tabs | Request tabs | Top 50 tabs