» » »

Daniel Wesley, Pilgrimige Tabs (ver.1)

Artists:  A B C D E F G H I J K L M N O P Q R S T U V W X Y Z # 

Pilgrimige Tabs (ver.1)

Daniel Wesley Tabs
 Rating:
4/5 (4 votes)
Pilgrimige lessons Tabs too difficult? Try these video lessons and learn fast
1
                Hey! this is my first tab, I noticed it wasn't on here yet
so I though I should add it. I will post Chords along with
lyrics, and I'll tab out the solo. Its super easy so every
one will be able to get it.

The song is played in a reggae rock style

A sharp minor Ab#
C sharp minor Cb#
D sharp minor Db#
Intro= Ab# Cb# Db# repeated four times

Ab#          Ab#
Take Me On A Pilgrimage
Cb#          Cb#
Where My Heart Is Rockin
Db#          Db#
And My Feet Are Stompin Yeah
Ab#          Ab#
Take Me On A Pligrimage
Cb#          Cb#
Where Our Fists Are Pumpin
Db#          Db#
The Drums Are Thumpin
Ab#          Ab#
Cause You, Your Feelin So Confused
Cb#          Cb#
Youll Move It With Those Gunshots Blarin
Db#          Db#
And Those Tears Are Tearin Thru You
Ab#          Ab#
You Got Nothin To Lose
Cb#          Cb#
Youll Do It When The Hits Keep Commin
Db#          Db#
And The Blood Is Runnin Cmon

Ab#          Ab#
Take Me On A Pilgrimage
Cb#          Cb#
Where The Sun Is Shinin
Db#          Db#
And The Heat Is Climbin Yeah
Ab#          Ab#
Take Me On A Pilgrimage
Cb#          Cb#
Where My Heart Is Open
Db#          Db#
My Karmas Hopin
Ab#          Ab#
That You, Youll Know Just What To Do
Cb#          Cb#
Youll Move It When The Guns Keep Firin
Db#          Db#
And The Sound Of Sirens Will Prove
Ab#          Ab#
Your Shakin In Your Boots
Cb#          Cb#
Its Sad To See That Peace Cant Happen
Db#          Db#
In Your Own Backyard Cmon

Ab#          Ab#
Withe Sound Of Sirens
Cb#                          Db#
And The Guns Keep Firin Cmon
Ab#          Ab#
When The Hits Keep Comin
Cb#                          Db#
And The Blood Is Runnin Cmon

Time To See The Light
We Dont Have To Fight
Tonight...

Ab#           Ab#
Take Me On A Pilgrimage
Cb#           Cb#
Where My Heart Is Rockin
Db#           Db#
And My Feet Are Stompin Yeah
Ab#           Ab#
Take Me On A Pligrimage
Cb#           Cb#
Where Our Fists Are Pumpin
Db#           Db#
The Drums Are Thumpin

Ab#           Ab#
Cause You, Your Feelin So Confused
Cb#           Cb#
Youll Move It With Those Gunshots Blarin
Db#           Db#
And Those Tears Are Tearin Thru You
Ab#           Ab#
Theres Nothin Left To Lose
Cb#           Cb#
Youll Move It With The Gunshots Blarin
Db#           Db#
And Your Tears Are Fallin Cmon

Solo 1

e------------------------------------------------|
b------------------------------------------------|
g--------------4-----------------------4---------|
d-----6------------4--4h6------6----------4--4h6-|
a--------4h6----------------------4h6------------|
E--4------------------------4--------------------|

Cb#           Cb#
With The Sound Of Sirens
Db#           Db#
And The Guns Keep Firin Cmon

Solo 2

e------------------------------------------------|
b------------------------------------------------|
g--------------4-----------------------4---------|
d-----6------------4--4h6------6----------4--4h6-|
a--------4h6----------------------4h6------------|
E--4------------------------4--------------------|

Cb#           Cb#
When The Hits Keep Comin
Db#           Db#
And The Blood Is Runnin Cmon

Solo 3

e------------------------------------------------|
b---------------------------------------4--------|
g--------------4----------------------------6p4--|
d-----6------------4--4h6------6-----------------|
a--------4h6----------------------4h6------------|
E--4------------------------4--------------------|

I Think that's all right ? if you find an error please
send me a msg and ill fix it up,  thanks  COLLIN REILLY

Chords Tabbed Are

Ab# Cb# Db#
-4- -4- -6-|
-4- -5- -7-|
-4- -6- -8-|
-6- -6- -8-|
-6- -4- -6-|
-4- -4- -6-|

Have Fun
            
Submit corrections

comments powered by Disqus
↑ Back to top | Daniel Wesley Tabs for Pilgrimige. Lyrics for acoustic guitar and electric guitar. 1 Tablatures and chords are parodies/interpretations of the original songs. You may use it for private study, scholarship, research or language learning purposes only