» » »

Daniel Wesley, Ooo Ohh Bass tabs (ver.1)

Artists:  A B C D E F G H I J K L M N O P Q R S T U V W X Y Z # 

Ooo Ohh Bass tabs (ver.1)

Daniel Wesley Tabs
 Rating:
4.2/5 (5 votes)
Ooo Ohh lessons Tabs too difficult? Try these video lessons and learn fast
1
                Intro:
G |-10/14~--10~-9~---------10/14~-10~-9~---------|
D |----------------7~--------------------7~-7\---|
A |--------------------------------------------0-|
E |----------------------------------------------|

Chorus:
"Ooo ohh.."
G |-----------------------------------------------------------|
D |------0-0-0h2---------------------0-0-0h2--------7-7\------|
A |----03-------0-0-7\-------------03-------0-0-7\-0----0-0---|
E |-1-1---------------0000h12\-1-1----------------------------|

G |-----------------------------------------------------------|
D |------0-0-0h2---------------------0-0-0h2--------7-7\------|
A |----03-------0-0-7\-------------03-------0-0-7\-0----0-0---|
E |-1-1---------------0000h12\-1-1----------------------------|
Those are twelve.

Verse:
"Daddy's little secret..."
G |--------------------12~--------14--------------12~---------|
D |--------------------------------------------14~------------|
A |---------------12~-----------------------12~---------------|
E |-13~----10~----------------13~----10~----------------------|

G |------14------------12~------------------------12~---------|
D |----15------------14-----------15~----------14~------------|
A |---------------12~-----------------------12~------12~12\---|
E |-13~----10~----------------13~----10~----------------------|

Pre-Verse:
"You won't be coming back..."
G |----10------10-----9-----9------10--------------9~-----14\-|
D |-----------------------------------------------------------|
A |-8~-------------0~---0-0-----8~-----5---5-5--0-0----0-0----|
E |--------10~------------------------------------------------|

G |----10-------------9~-14-10-----10--------------9~---------|
D |--------------------------------------12--10-------7-7-----|
A |-8~-----5~---5--0~---0~-0----8~--------------0~--------0-0-|
E |-----------------------------------10~--10-----------------|

Chorus:
"Ooo ohh.."
G |-----------------------------------------------------------|
D |------0-0-0h2---------------------00-3-32--------7-7\------|
A |----03-------0-0-7\-------------03-------0-0-7\-0----0-0---|
E |-1-1---------------0000h12\-1-1----------------------------|

G |-----------------------------------------------------------|
D |------0-0-0h2--------7--------------0-0-0h2--------7-7\----|
A |----03-------0-0-7\------7-------03--------0-0-7\-0----0---|
E |-1-1------------------000-0-1-1----------------------------|

Verse:
"Daddy's little secret..."
G |------------------12---------------------------12~12h14p12-|
D |------------------14------------------------14~------------|
A |---------------12~----12~----------------12~---------------|
E |-13~----10~----------------13~----10~----------------------|

G |---------------12~------12------------------12h14-12-9h10-9|
D |----15---------14~-------------15~-------------------------|
A |---------------12~----12~----------------12~---------------|
E |-13~----10~----------------13~----10~----------------------|

Pre-Verse:
"You won't be coming back..."
G |----10-------------9-----9------10--------------9~-----14\-|
D |-----------------------------------------------------------|
A |-8~-----5~-5-5--0~---0-0-----8~-----5---5-5--0-0----0-0----|
E |-----------------------------------------------------------|

G |----10-------------9~-14-10-----10--------------9~---------|
D |--------------------------------------12--10-------7-7-----|
A |-8~-----5~---5--0~---0~-0----8~--------------0~--------0-0-|
E |-----------------------------------10~--10-----------------|

Chorus:
"Ooo ohh.."
G |-----------------------------------------------------------|
D |------0-0-0h2---------------------0-0-3p2---------14\------|
A |----03-------0-0-7\-------------03-------0-0-7\-0-----0-0--|
E |-1-1---------------0000h12\-1-1----------------------------|

G |-----------------------------------------------------------|
D |------00-3-32---------------------0-0-0h2--------7-7-------|
A |----03-------0-0-7\--7---7------03-------0-0-7\-0----7h8-7-|
E |-1-1------------------000-0-1-1----------------------------|

G |-----------------------------------------------------------|
D |------0-0-3-2-------7-7-77--------00-2/32--------7---------|
A |----03-------0-0-7-0------0-----03-------0-0-7\----0-0-0---|
E |-1-1------------------------1-1----------------------------|

G |--------------------141414---------------------------------|
D |------0-0-3-2-------------1514\----0-0-33---------7-7------|
A |----03-------0-0-5/7--------------03-------0-0-7-0---0-0---|
E |-1-1---------------------------1-1-------------------------|

Ending:
G |---14-----14---14---14-|
D |-----------------------| Repeat until fade out.
A |------------7-0---0----|
E |-13--12-10-------------|
            
Submit corrections

comments powered by Disqus
↑ Back to top | Daniel Wesley Bass for Ooo Ohh. Lyrics for acoustic guitar and electric guitar. 1 Tablatures and chords are parodies/interpretations of the original songs. You may use it for private study, scholarship, research or language learning purposes only