» » »

Daniel Licht, Photos Tabs (ver.2)

Artists:  A B C D E F G H I J K L M N O P Q R S T U V W X Y Z # 

Photos Tabs (ver.2)

Daniel Licht Tabs
 Rating:
4.3/5 (6 votes)
Photos lessons Tabs too difficult? Try these video lessons and learn fast
                Daniel Licht
Photo


Tuning: E--
        B--
        G--
        D--
    (A*)G--
    (E*)C--

h = hammer on
~ = let it ring

Lower the A string one note, and the E string two notes.
(*) standard E tuning

E----------------------------------------------------------------------------------|
B----------------------------------------------------------------------------------|
G----------------------------------------------------------------------------------|
D-------13----------8----------8---7~----------5---------7------------13-12-12h13~-|
G----12----12-----7---7------5---5-----------3---3-----5---5-------12--------------|
C-12------------7----------5-----------0-2-3---------5----------12-----------------|


E----------------------------------------------------------------------------------|
B----------------------------------------------------------------------------------|
G----------------------------------------------------------------------------------|
D-------13----------8----------8---7~----------5---------7------------13-12-12h13~-|
G----12----12-----7---7------5---5-----------3---3-----5---5-------12--------------|
C-12------------7----------5-----------0-2-3---------5----------12-----------------|


E----------------------------------------------------------------------------------|
B----------------------------------------------------------------------------------|
G----------------------------------------------------------------------------------|
D-----5---------7-------------5---------7------------5--------7---------9---9~-----|
G---3---3-----5---5~--------3---3-----5---5~-------3---3----5---5-----10--10-------|
C-3---------5-------------3---------5------------3--------5---------7--------------|

Play it slower at the end and hold the last note
E----------------------------------------------------------------------------------|
B----------------------------------------------------------------------------------|
G----------------------------------------------------------------------------------|
D-------13----------8----------8---7~----------5---------7------------13-12-12h13~-|
G----12----12-----7---7------5---5-----------3---3-----5---5-------12--------------|
C-12------------7----------5-----------0-2-3---------5----------12-----------------|
            
Submit corrections

comments powered by Disqus
↑ Back to top | Daniel Licht Tabs for Photos. Lyrics for acoustic guitar and electric guitar. Tablatures and chords are parodies/interpretations of the original songs. You may use it for private study, scholarship, research or language learning purposes only