>
 >
Teas'n, Pleas'n

Teas'n, Pleas'n Guitar Tabs

Dangerous Toys - Teas'n, Pleas'n chords, tabs, tablatures, lyrics

Guitar lessons | Add/correct | Request | Top 50 tabs Artists:  A B C D E F G H I J K L M N O P Q R S T U V W X Y Z 0-9

Teas'n, Pleas'n Guitar Tabs – Dangerous Toys

CD, Sheet music, Poster

Do you like Teas'n, Pleas'n? Share with your friends now
Bass TabsTabs
-------------------------------------------------------------------------------
-------------------------------------------------------------------------------

I used a combination of the album recording and a live video to make this tab.
The song structure is at the end of the tab.

Tuning: Standard

Intro

e|-------------------------------------|
B|-------------------------------------|
G|-2--2--------------2-2---------------|
D|-2--2--------------2-2---------------|
A|-0--0-3-4----------0-0-3-4-----------|
E|----------2-3-2-3----------2-3-2-----|

Verse

e|------3----------------|
B|-3----3-----6----5-----|
G|-2----0-----3----5-----|
D|-0----0----------5-----|
A|------X----------------|
E|------3----------------|

Verse Ending

e|----------------------------------|
B|----------------------------------|
G|-9--9-9-9-9-----5--5-5-5-5--------|
D|-9--9-9-9-9--9--5--5-5-5-5--5-----|
A|-7--7-7-7-7--9--3--3-3-3-3--5-----|
E|-------------7--------------3-----|

Bridge

e|------------------------------------------------------------------|
B|------------------------------------------------------------------|
G|------------------------------------------------------------------|
D|-2-------------------------------5-----------7--5-----------7-----|
A|-2----4---5---4-------4---5-4-2--5-----------7--5-----------7-----|
E|-0--0---0---0---0-0-0---0--------3--3-3-3-3--5--3--3-3-3-3--5-----|
      .   .   .   . . .   .           . . . .        . . . .

e|---------------------------------------------------------------------------------------|
B|---------------------------------------------------------------------------------------|
G|---------------------------------------------------------------------------------------|
D|-2-------------------------------5-----------7--5-----------7--9--9-9-9-9-9-9-9--9-----|
A|-2----4---5---4-------4---5-4-2--5-----------7--5-----------7--9--9-9-9-9-9-9-9--9-----|
E|-0--0---0---0---0-0-0---0--------3--3-3-3-3--5--3--3-3-3-3--5--7--7-7-7-7-7-7-7--7-----|
      .   .   .   . . .   .           . . . .        . . . .        . . . . .
                                                                    (Gradually release p.m.)

"MAN, I THINK I GOT THE WRONG HOUSE..."

Solo Rhythm

e|---------------------------------|
B|---------------------------------|
G|---------------------------------| 
D|------------------5--7--5--7-----| 4 times
A|-----------5-4----5--7--5--7-----|
E|-0--0-3-0-------X-3--5--3--5-----|
      . . .                   

e|---------------------------------|
B|---------------------------------|
G|------------------5--7--5--7-----|
D|-----------5-4----5--7--5--7-----| 2 times
A|-0--0-3-0-------X-3--5--3--5-----|
E|---------------------------------|
      . . .

e|---------------------------------|
B|---------------------------------|
G|---------------------------------| 
D|------------------5--7--5--7-----| 2 times
A|-----------5-4----5--7--5--7-----|
E|-0--0-3-0-------X-3--5--3--5-----|
      . . . 

Ad-lib (Beginning)

 Guitar 1     Guitar 2
e|-------|    e|-------|
B|-------|    B|-------|
G|-------|    G|-------|
D|-2-----|    D|-------|
A|-2-----|    A|-------|
E|-0-----|    E|-0-----|
 (Let ring)    (Divebomb) 

Ad-lib (Ending)

e|-------------------------------|
B|-------------------------------|
G|-------------------------------|
D|-777777-7--7--7--7-\-----------|
A|-777777-7--7--7--7-\-----------|
E|-555555-5--5--5--5-\-----------|
 
Slow Outro

e|----------------------------------------------|
B|----------------------------------------------|
G|-2--2------------------------2--2-------------|
D|-2--2------------------------2--2-------------|
A|-0--0--3--4------------------0--0--3--4-/-----|
E|-------------2--3-3--2--3-3-------------------|

e|------------------------------------------------------------------|
B|------------------------------------------------------------------|
G|-2--2------------------------2--2--------------------------12-----|
D|-2--2------------------------2--2----------------12-----12--------|
A|-0--0--3--4------------------0--0--3--4-/-----12-----12-----------|
E|-------------2--3-3--2--3-3----------------12---------------------|
                                             +  +  +   +  +  +

                                                    Guitar 1      Guitar 2
e|----------------------------------------------|  e|-------|    e|---------|
B|----------------------------------------------|  B|-------|    B|-5-------|
G|-2--2------------------------2--2-------------|  G|-------|    G|-5-------|
D|-2--2------------------------2--2-------------|  D|-------|    D|---------|
A|-0--0--3--4------------------0--0--3--4-/-----|  A|-------|    A|---------|
E|-------------2--3-3--2--3-3-------------------|  E|-0-----|    E|---------|
                                                                    + 
                                                    (Divebomb)    (Harmonic Divebomb)

e|----------------------------------------------|
B|----------------------------------------------|
G|-2--2------------------------2--2-------------|
D|-2--2------------------------2--2-------------|
A|-0--0--3--4------------------0--0--3--4-/-----|
E|-------------2--3-3--2--3-3-------------------|

Intro/Chorus Outro

e|-------------------------------------|
B|-------------------------------------|
G|-2--2--------------2-2---------------|
D|-2--2--------------2-2---------------| 8 Times
A|-0--0-3-4----------0-0-3-4-----------|
E|----------2-3-2-3----------2-3-2-----|

e|--------------------|
B|--------------------|
G|-2--2---------------|
D|-2--2---------------| 2 Times
A|-0--0-3-4-----------|
E|----------2-3-2-----|

e|----------|
B|----------|
G|-2--2-----|
D|-2--2-----|
A|-0--0-----|
E|----------|

e|------------------|
B|------------------|
G|------------------|
D|-2----------2-----|
A|-2----------2-----|
E|-0----------0-----|
 (Let ring)


---Song Structure---

Intro/Chorus x4

Verse x1
Intro/Chorus x1
Verse x1
Intro/Chorus x2
Verse Ending x1

Intro/Chorus x2

Verse x1
Intro/Chorus x1
Verse x1
Intro/Chorus x2
Verse Ending x1

Intro/Chorus x4

Bridge x1

Solo

Ad-lib

Slow Outro

Intro/Chorus Outro

************************************
| .   palm mute
| /   slide up
| \   slide down
| h   hammer-on
| p   pull-off
| ~   vibrato
| +   harmonic
| x   mute note (fret hand)
| b   Bend
| pb  Pre-bend
| br  Bend release
| pbr Pre-bend release
| brb Bend release bend

************************************





Comments


Popular Dangerous Toys tabs & chords
Queen Of The Nile Bass Tabs
Scared Bass Tabs
That Dog Bass Tabs
Best Of Friends Tabs
New Anger Tabs
Scared Tabs
Sportn A Woody Intro Tabs
Teasin Pleasin Tabs
Teasn Pleasn 1 Tabs
That Dog Tabs


Song lyrics



↑ Back to top | Tablatures and chords are parodies/interpretations of the original songs. You may use it for private study, scholarship, research or language learning purposes only
© 2014 AZChords.com Contact us | Privacy policy | DMCA | Add/correct tabs | Request tabs | Top 50 tabs