» » »

We Used To Be Friends Bass tabs (ver.2)

Artists:  A B C D E F G H I J K L M N O P Q R S T U V W X Y Z # 

We Used To Be Friends Bass tabs (ver.2)

Dandy Warhols
Rating:
0/5 (0 votes)

Tabs too difficult? Try these video lessons and learn fast.
                We Used To Be Friends bass tab by The Dandy Warhols
Tab Made by KaiserWilhelm

Normal Tuning (E,A,D,G)

[-------------]
[-------------]
[-------------]
[-0-1-5-5-1-0-]

[----------------]
[----------------]
[-22222--00000---] X8
[------22-----00-]

[------------------]        [--------]
[------------------]        [--------]
[------------------] X4     [-0000---]
[-5555000077772222-]        [-----00-]

[----------------]
[----------------]
[-22222--00000---] X4
[------22-----00-]

[------------------]        [--------]
[------------------]        [--------]
[------------------] X8     [-0000---]
[-5555000077772222-]        [-----00-]


[----------------]                  [-------]
[----------------]                  [-------]
[-22222--00000---] 'til the end     [-------]
[------22-----00-]                  [---7---]
            
Tabs too difficult? Try these video lessons and learn fast.




comments powered by Disqus
↑ Back to top | Tablatures and chords are parodies/interpretations of the original songs. You may use it for private study, scholarship, research or language learning purposes only