» » »

We Used To Be Friends Chords (ver.1)

Artists:  A B C D E F G H I J K L M N O P Q R S T U V W X Y Z # 

We Used To Be Friends Chords (ver.1)

Dandy Warhols
Rating:
0/5 (0 votes)

Hard to play? Try these video lessons and learn fast.
                 

 
notation  /  slide up
          x  mute with your fretting hand
          \  slide down
 
regular tuning
 
opening and verse riff
 
opening use slight distortion
 
verse no distortion and a heavy bass effect. palm muting helps aswell
 
E-----------------------------
B-----------------------------
G-----------------------------
D-9-9-9-9-4-4-4/-7-7-7-7-2-2-2
A-9-9-9-7-4-4-4/-7-7-7-7-2-2-2
E-7-7-7-7-2-2-2/-5-5-5-5-0-0-0
 
pre chorus some distortion
E-------------------------------
B-------------------------------
G-------------------------------
D-7-7-\-2-2--9-9-\-4-4----------
A-5-5-\-2-2--9-9-\-4-4----------
E-5-5-\-0-0--7-7-\-2-2----------
 
 
 
chorus
E-------------------------------
B-------------------------------
G-------------------------------
D-9-9-x-x-x-4-4-/-7-7-x-x-x-2-2-
A-9-9-x-x-x-4-4-/-7-7-x-x-x-2-2-
E-7-7-x-x-x-2-2-/-5-5-x-x-x-0-0-
 
the other sounds in the song are done by keyboard
 
this tab is all my own work
            
Hard to play? Try these video lessons and learn fast. | Correct




comments powered by Disqus
↑ Back to top | Tablatures and chords are parodies/interpretations of the original songs. You may use it for private study, scholarship, research or language learning purposes only