» » »

Sleep Bass tabs (ver.1)

Artists:  A B C D E F G H I J K L M N O P Q R S T U V W X Y Z # 

Sleep Bass tabs (ver.1)

Dandy Warhols
Rating:
0/5 (0 votes)

Hard to play? Try these video lessons and learn fast.
                (1)
this is a really awesome song, with a very
clear bassline, just follow along with the
guitar, and just keep playing along, i know
ive fallen asleep many times listening to this
song myself.

p.s. i think this is the only dandy warhols
song on here, lets get some more, come on.


---------------------------------------
-2-2-2---5-5-5-5-5--0-0-0--------------
--------------------------0-0-0-0-0----
---------------------------------------

then

--------------------7-7-7--------------
-2-2-2---5-5-5-5-5--------7-7-7-7-7----
---------------------------------------
---------------------------------------

if you just keep repeating that over and over again it sounds great.
there may be a few extra twists you can add, but i don't want to make
anything confusing about this, and it really doesnt need anything
other than this.

basically:

--------------------------------------
----------0-0-0-00--------------------
-2-2-2-22----------0-0-0-00-----------
----------------------------0-0-0-00--
if anyone knows anything that can help me with this, give me an email.
            
Hard to play? Try these video lessons and learn fast. | Correct




comments powered by Disqus
↑ Back to top | Tablatures and chords are parodies/interpretations of the original songs. You may use it for private study, scholarship, research or language learning purposes only