» » »

Dandy Warhols, Good Morning Tabs (ver.2)

Artists:  A B C D E F G H I J K L M N O P Q R S T U V W X Y Z # 

Good Morning Tabs (ver.2)

Dandy Warhols Tabs
 Rating:
4/5 (4 votes)
Good Morning lessons Tabs too difficult? Try these video lessons and learn fast
                Tuning: Normal

Intro

This part is with bendings

E-------------------------------------
B-------------------------------------
G--7~------7~------5~------5~---------
D--5~------7~------3~------5~---------
A-------------------------------------
E-------------------------------------


Verse- and this fades in during the intro

    G               Dm              Fm                C  
E-0-0-0-0-0-0-0-0-1-1-1-1-1-1-1-1-0-0-0-0-0-0-0-0-0-0-0-0-0-0-0-0-0--|
B-3-3-3-3-3-3-3-3-3-3-3-3-3-3-3-3-1-1-1-1-1-1-1-1-1-1-1-1-1-1-1-1-1--|
G-0-0-0-0-0-0-0-0-2-2-2-2-2-2-2-2-2-2-2-2-2-2-2-2-2-0-0-0-0-0-0-0-0--|
D-0-0-0-0-0-0-0-0-0-0-0-0-0-0-0-0-3-3-3-3-3-3-3-3-3-2-2-2-2-2-2-2-2--|
A-2-2-2-2-2-2-2-2-----------------3-3-3-3-3-3-3-3-3-3-3-3-3-3-3-3-3--|
E-3-3-3-3-3-3-3-3-----------------1-1-1-1-1-1-1-1-1------------------|
 

Interlude/chorus

                                   
    G               Dm              Fm                G  
E-0-0-0-0-0-0-0-0-1-1-1-1-1-1-1-1-0-0-0-0-0-0-0-0-0-0-0-0-0-0-0-0-0--|
B-3-3-3-3-3-3-3-3-3-3-3-3-3-3-3-3-1-1-1-1-1-1-1-1-1-3-3-3-3-3-3-3-3--|
G-0-0-0-0-0-0-0-0-2-2-2-2-2-2-2-2-2-2-2-2-2-2-2-2-2-0-0-0-0-0-0-0-0--|
D-0-0-0-0-0-0-0-0-0-0-0-0-0-0-0-0-3-3-3-3-3-3-3-3-3-0-0-0-0-0-0-0-0--|
A-2-2-2-2-2-2-2-2-----------------3-3-3-3-3-3-3-3-3-2-2-2-2-2-2-2-2--|
E-3-3-3-3-3-3-3-3-----------------1-1-1-1-1-1-1-1-1-3-3-3-3-3-3-3-3--|

   Dm   Fm                 Dm   G                Dm   Fm
E--1-1--0-0-0-0-0-0-0-0-0--1-1--0-0-0-0-0-0-0-0--1-1--0-0-0-0-0-0-0-0-0--|
B--3-3--1-1-1-1-1-1-1-1-1--3-3--3-3-3-3-3-3-3-3--3-3--1-1-1-1-1-1-1-1-1--|
G--2-2--2-2-2-2-2-2-2-2-2--2-2--0-0-0-0-0-0-0-0--2-2--2-2-2-2-2-2-2-2-2--|
D--0-0--3-3-3-3-3-3-3-3-3--0-0--0-0-0-0-0-0-0-0--0-0--3-3-3-3-3-3-3-3-3--|
A-------3-3-3-3-3-3-3-3-3-------2-2-2-2-2-2-2-2-------3-3-3-3-3-3-3-3-3--|
E-------1-1-1-1-1-1-1-1-1-------3-3-3-3-3-3-3-3-------1-1-1-1-1-1-1-1-1--|
 
The chorus ends on: 

  G   
E-0-0-0-0-0-0-0-0-|
B-3-3-3-3-3-3-3-3-|
G-0-0-0-0-0-0-0-0-|
D-0-0-0-0-0-0-0-0-|
A-2-2-2-2-2-2-2-2-|
E-3-3-3-3-3-3-3-3-|

Well this was not a very hard tab, but it sounds really good,

Have fun!!
            
Submit corrections

comments powered by Disqus
↑ Back to top | Dandy Warhols Tabs for Good Morning. Lyrics for acoustic guitar and electric guitar. Tablatures and chords are parodies/interpretations of the original songs. You may use it for private study, scholarship, research or language learning purposes only