» » »

Get Off Tabs (ver.2)

Artists:  A B C D E F G H I J K L M N O P Q R S T U V W X Y Z # 

Get Off Tabs (ver.2)

Dandy Warhols
Rating:
0/5 (0 votes)

Hard to play? Try these video lessons and learn fast.
                Get Off
D A N D Y   W A R H O L S


KEY:
~ = sustain / vibrato
/ = slide up

Here we go.

CHORDS:
e|-0--0--0--0--2--0--3--0-|
B|-1--0--1--0--3--1--3--0-|
G|-2--1--2--1--2--2--0--1-|
D|-2--2--2--2--0--2--0--2-|
A|-0--2--0--2-----0--2--2-|
E|----0-----0--------3--0-|
They're The Chords. Play them strummed normally, but you need
to strum the first few chords once later in the song, then continue as normal.

LEAD:
e|---------------------------------------|
B|---------------------------------------|
G|-5~--4~--2-4-5~--4~--2-4-7~--2~--2/4~~-|
D|---------------------------------------|
A|---------------------------------------|
E|---------------------------------------|

That's about it.
            
Hard to play? Try these video lessons and learn fast. | Correct




comments powered by Disqus
↑ Back to top | Tablatures and chords are parodies/interpretations of the original songs. You may use it for private study, scholarship, research or language learning purposes only