» » »

Dandy Warhols, Big Indian Chords (ver.2)

Artists:  A B C D E F G H I J K L M N O P Q R S T U V W X Y Z # 

Big Indian Chords (ver.2)

Dandy Warhols Tabs
 Rating:
4.4/5 (7 votes)
Big Indian lessons Tabs too difficult? Try these video lessons and learn fast
1
                Big Indian


any questions or corrections- e-mail me

Normal tuning
   
    Main-Part
   
    D            C      G       D  
E:|-2--2--2-2-2--0-0-0--0--0-0--2--2--2-2-------|
B:|-3--3--3-3-3--1-1-1--3--3-3--3--3--3-3-------|
G:|-2--2--2-2-2--0-0-0--0--0-0--2--2--2-2-------|
D:|-0--0--0-0-0--2-2-2--0--0-0--0--0--0-0-------|
A:|--------------3-3-3--2--2-2------------------|
E:|---------------------3--3-3------------------|
 

     The Future is fridning ...   
   
      this part 3 times
    G       D                C       G       C       D
E:|-0--0-0--2--2--2-2------|-0--0-0--0-------0--0-0--2--|
B:|-3--3-3--3--3--3-3------|-1--1-1--3-------1--1-1--3--|
G:|-0--0-0--2--2--2-2------|-0--0-0--0-------0--0-0--2--|
D:|-0--0-0--0--0--0-0------|-2--2-2--0-------2--2-2--0--|
A:|-2--2-2-----------------|-3--3-3--2-------3--3-3-----|
E:|-3--3-3-----------------|---------3------------------|
            
Submit corrections

comments powered by Disqus
↑ Back to top | Dandy Warhols Chords for Big Indian. Lyrics for acoustic guitar and electric guitar. 1 Tablatures and chords are parodies/interpretations of the original songs. You may use it for private study, scholarship, research or language learning purposes only