» » »

Nuisance Tabs (ver.2)

Artists:  A B C D E F G H I J K L M N O P Q R S T U V W X Y Z # 

Nuisance Tabs (ver.2)

Dance Hall Crashers
Rating:
0/5 (0 votes)

Hard to play? Try these video lessons and learn fast.
                NUISANCE by the Dance Hall Crashers

(  )X4 = Repeat four times
xby = play x bent to tone of y
xsy = play x, slide to y
xhy = play x, hammer to y
xpy = play x, pull off to y


Guitar 1
(D   G   A)X4


Guitar 1
   G5      A5
Guitar 2
e-------------------------------------------------
B-------------------------------------------------
G-------------------------------------------------
D-------------10--10------10--12b14--12--10--12---
A---------------------12--------------------------
E-------------------------------------------------


Guitar 1
    D5  G5      A5  G5 
Guitar 2
e---10----------------------------------------
B-------13--10--------------------------------
G---------------12--12b14--12--10------10-----
D----------------------------------12---------
A---------------------------------------------
E---------------------------------------------


Guitar 1
    D5              G5          A5      G5 
Guitar 2
e------------------------------------------------
B------------------------------------------------
G-------------------------------10--10---12-10---
D---12--10------10--12--10--12--12--12---12-12---
A-----------12-----------------------------------
E------------------------------------------------


Guitar 1
    D5         G5      A5          G5 
Guitar 2
e------10--------------10----------------------------------
B---10-----10--13--10-----10--13---------------------------
G---------------------------------12b14--12--10------10----
D------------------------------------------------12--------
A----------------------------------------------------------
E----------------------------------------------------------


Guitar 1
    D5              G5          A5      G5 
Guitar 2
e------------------------------------------------
B------------------------------------------------
G-------------------------------10--12--10s7-----
D---12--10------10--12--10--12-------------------
A-----------12-----------------------------------
E------------------------------------------------


Verse One (Chords repeat for all verses)
D    G      A          G        D    G   A
  He don't leave when it's time to go

D    G      A        G          D    G   A
  He don't leave at the end of the show

D     G   A         G   D        G     A
  He's no friend an acquaintance at best

D     G   A   G            D    G   A
  A scary guy in a leather vest


             D5       G5    A5    G5
Cause he's a nuisance


Verse Two
When he speaks it's a scary sound
It's hard to keep him from hanging around
the girls won't give him the time of day, they just hope he'll go away
Why won't he go away, why does he always stay
Cause he's a nuisance

Verse Three
I wish he'd move to another place or at least get out of my face
It seems that there is nothing left to do
I wish he would just get a clue
Cause he's a nuisance


F#m                   G
Why won't he go away, why does he always stay

             D5       G5    A5    G5
Cause he's a nuisance


Guitar 1
e------------------------------------------------------
B------------------------------------------------------
G----------2---------------2----2----------------------
D--------4------5---4-2------4------5--5--4--2---------
A----5-------------------------------------------------
E------------------------------------------------------


Guitar 1
e------------------------------------------------------
B------------------------------------------------------
G----------2-------------------------------------------
D--------4------5---4-2----------------2---------------
A----5----------------------------4---------4----------
E-------------------------5-5--5-----------------------


Guitar 1
e------------------------------------------------------
B------------------------------------------------------
G----------2---------------2----2----------------------
D--------4------5---4-2------4------5--5--4--2---------
A----5-------------------------------------------------
E------------------------------------------------------


Guitar1
e------------------------------------
B------------------------------------
G----------2---------------2---------
D--------4------5---4-2--------------
A----5-------------------------------
E------------------------------------

*Pause*

Guitar 1
e------------------------------------------------------
B------------------------------------------------------
G----------2---------------2----2----------------------
D--------4------5---4-2------4------5--5--4--2---------
A----5-------------------------------------------------
E------------------------------------------------------

Guitar 2
e---10-------------------------------------------
B-------13--10-----------------------------------
G---------------12--12b14--12--10------10--------
D----------------------------------12------------
A------------------------------------------------
E------------------------------------------------


Guitar 1
e------------------------------------------------------
B------------------------------------------------------
G----------2-------------------------------------------
D--------4------5---4-2----------------2---------------
A----5----------------------------4---------4----------
E-------------------------5-5--5-----------------------

Guitar 2
e--------------------------------------------------
B----10--------------------------------------------
G---------12--10----------------10--12--10---------
D------------------12--10--12----------------------
A--------------------------------------------------
E------------------------------------------------


Guitar 1
e------------------------------------------------------
B------------------------------------------------------
G----------2---------------2----2----------------------
D--------4------5---4-2------4------5--5--4--2---------
A----5-------------------------------------------------
E------------------------------------------------------

Guitar 2
e----8s10-10-8s10-108s10--13--10--------------10-------
B---------------------------------10--13--10-----------
G------------------------------------------------------
D------------------------------------------------------
A------------------------------------------------------
E------------------------------------------------------


Guitar 1
e------------------------------------------------------
B------------------------------------------------------
G----------2-------------------------------------------
D--------4------5---4-2----------------2---------------
A----5----------------------------4---------4-5--------
E-------------------------5-5--5-----------------------

Guitar 2
e-----------------------------------------------------
B--13p10p8--10p8p6----------------6----6------7-------
G--------------------7--5-----5--------5------7-------
D--------------------------7------------------5-------
A-----------------------------------------------------
E-----------------------------------------------------

That's my interpretation...
Feel free to e-mail me for comment, corrections, etc.

Pancreas
            
Hard to play? Try these video lessons and learn fast. | Correct




comments powered by Disqus
↑ Back to top | Tablatures and chords are parodies/interpretations of the original songs. You may use it for private study, scholarship, research or language learning purposes only