>
 >
Everything To Lose

Everything To Lose Bass Tabs

Dance Hall Crashers - Everything To Lose chords, tabs, tablatures, lyrics

Guitar lessons | Add/correct | Request | Top 50 tabs Artists:  A B C D E F G H I J K L M N O P Q R S T U V W X Y Z 0-9

Everything To Lose Bass Tabs – Dance Hall Crashers

CD, Sheet music, Poster

Do you like Everything To Lose? Share with your friends now
Bass TabsTabs
=play a couple of time 
\=slide up 
h=hammer on 

Intro / Verse 
G|(x4)---|(then)----------------------------------------| 
D|-------|----------------------------------------------| 
A|-5-5---|-5-5--5-5--5-5--5-5-4\2-2--2-2--0-0--0-0h2-0--| 
E|-------|----------------------------------------------| 

G|--------------------------------------------------| 
D|--------------------------------------------------| 
A|-5-5--5-5--5-5--5-5-4-4--2-2--2-2--0-0--0-0h2-0---| 
E|--------------------------------------------------| 

G|-----------------------------------------------| 
D|-----------------------------------------------| 
A|-5-5--5-5--5-5--5-5-4\2-2--2-2--0-0--0-0h2-0---| 
E|-----------------------------------------------| 

G|---------------------------------------| 
D|---------------------------------------| 
A|-5-5--5-5--5-5--5-5-4-4--2-2--2-2-0>---| 
E|---------------------------------------| 

Chorus 
G|-------------------------------------------------| 
D|-------------------------------------------------| 
A|----------2>--------2>------------2>--------5>---| 
E|-3>-5>-2>-----3>-5>------3>-5>-2>-----3>-5>------| 

Verse 
G|----------------------------------------------| 
D|----------------------------------------------| 
A|-5-5--5-5--5-5--5-5-4\2-2--2-2--0-0--0-0h2-0--| 
E|----------------------------------------------| 

G|----------------------------------------------| 
D|----------------------------------------------| 
A|-5-5--5-5--5-5--5-5-4\2-2--2-2--0-0--0-0h2-0--| 
E|----------------------------------------------| 

G|----------------------------------------------| 
D|----------------------------------------------| 
A|-5-5--5-5--5-5--5-5-4\2-2--2-2--0-0--0-0h2-0--| 
E|----------------------------------------------| 

G|-----------------------------------| 
D|-----------------------------------| 
A|-5-5--5-5--5-5--5-5-4\2-2--2-2-0>--| 
E|-----------------------------------| 

Chorus 
G|----------------------------------------------------------| 
D|----------------------------------------------------------| 
A|----------2>--------2>------------2>--------5>--------5>--| 
E|-3>-5>-2>-----3>-5>------3>-5>-2>-----3>-5>-----3>-5>-----| 

During Guitar solo (first way) 
G|-----------------------------------------------| 
D|-----------------------------------------------| 
A|-5-5--5-5--5-5--5-5-4\2-2--2-2--0-0--0-0h2-0---| 
E|-----------------------------------------------| 

G|-----------------------------------| 
D|-----------------------------------| 
A|-5-5--5-5--5-5--5-5-4\2-2--2-2-0>--| 
E|-----------------------------------| 

I wasn't sure if the bass followed the drums rythm 
in this part so I wrote the 2 ways of playing it. 
Choose the one you think is best. 
(second way) 
G|------------------------------------------------| 
D|------------------------------------------------| 
A|-5-5--5-5--5-5--5-5-4\2-2-2--2-2--0-0--0-0h2-0--| 
E|------------------------------------------------| 

G|----------------------------------------| 
D|----------------------------------------| 
A|-5-5--5-5--5-5--5-5-4\2-2-2--2-2--2-0>--| 
E|----------------------------------------| 

Bridge 
G|(x3)-------------|--------------| 
D|-----------------|--------------| 
A|-------------2>--|---------2>---| 
E|-3>--5>--2>------|-3>--2>-------| 

Chorus 
G|------------------------------------------------| 
D|------------------------------------------------| 
A|----------2>--------2>------------2>--------5>--| 
E|-3>-5>-2>-----3>-5>------3>-5>-2>-----3>-5>-----| 

G|-------------------------------------------------------------------| 
D|-------------------------------------------------------------------| 
A|-------5>--------5>--------5>-2>---------5-5-5-4-5-5-5-4-5-5-5-5\--| 
E|-3>-5>-----3>-5>-----3>-5>---------3>-5>---------------------------|End 

A little long but that's it for another great 





Comments


Popular Dance Hall Crashers tabs & chords
All Mine Bass Tabs
Buried Alive Bass Tabs
Next To You Bass Tabs
Othello Bass Tabs
Pick Up Lines 1 Bass Tabs
Lost Again Chords
He Wants Me Back Tabs
Lady Luck Tabs
My Problem Tabs
Street Sweeper Tabs


Song lyrics



↑ Back to top | Tablatures and chords are parodies/interpretations of the original songs. You may use it for private study, scholarship, research or language learning purposes only
© 2014 AZChords.com Contact us | Privacy policy | DMCA | Add/correct tabs | Request tabs | Top 50 tabs