>
 >
Everything To Lose

Everything To Lose Guitar Tabs

Dance Hall Crashers - Everything To Lose chords, tabs, tablatures, lyrics

Guitar lessons | Add/correct | Request | Top 50 tabs Artists:  A B C D E F G H I J K L M N O P Q R S T U V W X Y Z 0-9

Everything To Lose Guitar Tabs – Dance Hall Crashers

CD, Sheet music, Poster

Do you like Everything To Lose? Share with your friends now
Bass TabsTabs
Everything to lose              DHC

Intro:
e-----------------------------------------|
B-----------------------------------------|
G-7-7--7-7--7-7--7-7--4-4--4-4--2-2--2-2--|
D-7-7--7-7--7-7--7-7--4-4--4-4--2-2--2-2--|
A-5-5--5-5--5-5--5-5--2-2--2-2--0-0--0-0--|
E-----------------------------------------|

Verse: same as the chorus, but with pick hits between
each chord like this:
e--------------------------------------|
B--------------------------------------|
G-7-7-x-x-7-7-x-x-7-7-x-x-7-7-x-x-4-4--|
D-7-7-x-x-7-7-x-x-7-7-x-x-7-7-x-x-4-4--| etc.
A-5-5-x-x-5-5-x-x-5-5-x-x-5-5-x-x-2-2--|
E--------------------------------------|

Chorus:
e------------------------------------------|
B------------------------------------------|
G-------------------------4-4-4-4----------|
D-5-5-5-5-7-7-7-7-4-4-4-4-4-4-4-4-5-5-5-5--|
A-5-5-5-5-7-7-7-7-4-4-4-4-2-2-2-2-5-5-5-5--|
E-3-3-3-3-5-5-5-5-2-2-2-2-2-2-2-2-3-3-3-3--|

e-----------------7-7-7-7--|
B-----------------7-7-7-7--|
G-----------------7-7-7-7--|
D-7-7-7-7-9-9-9-9-9-9-9-9--|
A-7-7-7-7-9-9-9-9-9-9-9-9--|
E-5-5-5-5-7-7-7-7-7-7-7-7--|

e------------------------------------------|
B------------------------------------------|
G-------------------------4-4-4-4----------|
D-5-5-5-5-7-7-7-7-4-4-4-4-4-4-4-4-5-5-5-5--|
A-5-5-5-5-7-7-7-7-4-4-4-4-2-2-2-2-5-5-5-5--|
E-3-3-3-3-5-5-5-5-2-2-2-2-2-2-2-2-3-3-3-3--|

e--------------------------|
B--------------------------|
G---------7-7-7-7-7-7-7-7--|
D-7-7-7-7-7-7-7-7-7-7-7-7--|
A-7-7-7-7-5-5-5-5-5-5-5-5--|
E-5-5-5-5------------------|

Bridge:
e-----------------------------------|
B-----------------------------------|
G-7--11-11--9-9--7-7--6-6--4-4------|
D-x---x--x--x-x--x-x--x-x--x-x------|
A-5---9--9--7-7--5-5--4-4--2-2------|
E-----------------------------------|

e--------------------------------|
B--------------------------------|
G-11-11--9-9--7-7--6-6--7-7------|
D--x--x--x-x--x-x--x-x--x-x------|
A--9--9--7-7--5-5--4-4--5-5------|
E--------------------------------|

e------------------------------------|
B------------------------------------|
G-11-11--9-9--7-7--6-6--11-11--------|
D--x--x--x-x--x-x--x-x---x--x--------|
A--9--9--7-7--5-5--4-4---9--9--------|
E------------------------------------|

e--------------------------------|
B--------------------------------|
G-11-11--9-9--7-7--6-6--7-7------|
D--x--x--x-x--x-x--x-x--x-x------|
A--9--9--7-7--5-5--4-4--5-5------|
E--------------------------------|

Then the chords are the same as the chorus (but palm-
muted, and on the last time around you play this:
e----------------------------------|
B----------------------------------|
G----------------------------------|
D-5-5-5-5-5-5-5-5-4-4-4-4-4-4-4-4--|
A-5-5-5-5-5-5-5-5-4-4-4-4-4-4-4-4--|
E-3-3-3-3-3-3-3-3-2-2-2-2-2-2-2-2--|
palm mute.........................


e------------------2--------|
B--------------------3------|
G-4-4-4-4-4-4-4-4------4----|
D-4-4-4-4-4-4-4-4--------4--|
A-2-2-2-2-2-2-2-2-----------|
E---------------------------|
.................

Then play the full chorus once, then this:

             two times
e---------------------------------|
B---------------------------------|
G-----------------7-7-7-7-7-7-7-7-|
D-5-5-5-5-7-7-7-7-7-7-7-7-7-7-7-7-|
A-5-5-5-5-7-7-7-7-5-5-5-5-5-5-5-5-|
E-3-3-3-3-5-5-5-5-----------------|

e----------------------------------|
B----------------------------------|
G-----------------7-7-7-7-4-4-4-4--|
D-5-5-5-5-7-7-7-7-7-7-7-7-4-4-4-4--|
A-5-5-5-5-7-7-7-7-5-5-5-5-2-2-2-2--|
E-3-3-3-3-5-5-5-5------------------|

End:
e------------------------------------------|
B------------------------------------------|
G-----------------7-7-7/6/7-7-7/6/7-7-7-7--|
D-5-5-5-5-7-7-7-7-7-7-7/6/7-7-7/6/7-7-7-7--|
A-5-5-5-5-7-7-7-7-5-5-5/4/5-5-5/4/5-5-5-5--|
E-3-3-3-3-5-5-5-5--------------------------|





Comments


Popular Dance Hall Crashers tabs & chords
All Mine Bass Tabs
Buried Alive Bass Tabs
Good For Nothin Bass Tabs
No Heart Bass Tabs
State Of Mind Bass Tabs
Cricket Chords
He Wants Me Back 1 Tabs
My Problem Tabs
Lost Again Ukulele
Shelly Ukulele


Song lyrics



↑ Back to top | Tablatures and chords are parodies/interpretations of the original songs. You may use it for private study, scholarship, research or language learning purposes only
© 2014 AZChords.com Contact us | Privacy policy | DMCA | Add/correct tabs | Request tabs | Top 50 tabs