» » »

Murder Comes With Smiles Tabs (ver.6)

Artists:  A B C D E F G H I J K L M N O P Q R S T U V W X Y Z # 

Murder Comes With Smiles Tabs (ver.6)

Dance Club Massacre
Rating:
3/5 (2 votes)

Hard to play? Try these video lessons and learn fast.
                (Intro)
-------------------------------------------------------------------------------
                            Misc Unsigned Bands
-------------------------------------------------------------------------------

Tuning: Drop D


:18 seconds into the song
Listin for tempo of the muted part
  xxxxxxxxxxxxxxxxxxxxxxxxxxxxxxxxxxxxxxxxx
e|---------------------------------------------------------------------------|
B|---------------------------------------------------------------------------|
G|-----7777------7777------7777------777--7----------------------------------|
D|55557----755557----755557----755557---75-----------------------------------|
A|---------------------------------------------------------------------------|
E|---------------------------------------------------------------------------|
                        
 
 :33 seconds into the song 
e|---------------------------------------------------------------------------|
B|---------------------------------------------------------------------------|
G|----7~-7------7~-7------7~-7------7~---------------------------------------|
D|5-57----75~-57----75~-57----75~-57-----------------------------------------|
A|---------------------------------------------------------------------------|
E|---------------------------------------------------------------------------|
  :46 seconds into the song
e|---------------------------------------|
B|---------------------------------------|
G|---------------------------------------| 
D|---------------------------------------| X6
A|9\-55555555-55555555-44444444-44444444-| Do this 6 times
E|7\-33333333-33333333-22222222-22222222-|



| /  slide up
| \  slide down
| h  hammer-on
| p  pull-off
| ~  vibrato
| +  harmonic
| x  Mute note
===============================================================================
            
Hard to play? Try these video lessons and learn fast. | Correct




comments powered by Disqus
↑ Back to top | Tablatures and chords are parodies/interpretations of the original songs. You may use it for private study, scholarship, research or language learning purposes only