>
 >
Murders Come With Smiles

Murders Come With Smiles Guitar Tabs

Dance Club Massacre - Murders Come With Smiles chords, tabs, tablatures, lyrics

Guitar lessons | Add/correct | Request | Top 50 tabs Artists:  A B C D E F G H I J K L M N O P Q R S T U V W X Y Z 0-9

Murders Come With Smiles Guitar Tabs – Dance Club Massacre

CD, Sheet music, Poster

Do you like Murders Come With Smiles? Share with your friends now
TabsTabs v2
                            MURDERS COME WITH SMILES
                       As recorded by Dance Club Massacre
         (From the 2006 Album FEAST OF THE BLOOD MONSTERS (1ST RELEASE))

Words by Nick Serger

Music by Dance Club Massacre

Gtr I (E A D G B E) - 'Matt'
Gtr II (D A D G B E) - 'Mitch'
Gtr III (D A D G B E) - 'Mitch II'
Gtr IV (D A D G B E) - 'Mitch III'
Gtr V (E A D G B E) - 'Matt II'
Gtr VI (D A D G B E) - 'Mitch IV'

   Intro
    Q=105
   4/4
    Gtr I
    E E E E E E E E   E E E E E E E E
||------------------|------------------||
||o-----------------|-----------------o||
||------------------|------------------||
||------------------|------------------||
||o-----3-------3---|-----3-------3---o||
||--1-4---4-1-4---4-|-0-4---4-0-4---4--||


                           Q=125
 3/4           4/4
                ~
  +H     +Q     W            E E  e E  e E  e E    e E  e E  e E  e E
|-------------|----------|----------------------|---------------------|
|-------------|----------|----------------------|---------------------|
|-------------|----------|----------------------|---------------------|
|-------------|----------|-/10---10---10---10---|-10---10---10---10---|
|-------------|----------|--------3----3----3---|--3----3----3----3---|
|-(4)----(4)S=|=0--------|--/8------------------|---------------------|


  Gtr I
   E E  e E  e E  e E    e  E  e E  e E  e E
|---------------------|----------------------|
|---------------------|----------------------|
|---------------------|----------------------|
|-10---10---10---10---|-10----10---10---10---|
|--3----3----3----3---|--3-----3----3----3---|
|---------------------|----------------------|
|
| Gtr II
|  E E  E e  E E  E E    E  E  E E  E E  E E
|---------------------|----------------------|
|---------------------|----------------------|
|---------------------|----------------------|
|---------------------|----------------------|
|---------------------|--3-----3----3----3---|
|--3----3----3----3-6-|--------------------6-|
|
| Gtr V
|  W                    +W
|---------------------|----------------------|
|---------------------|----------------------|
|---------------------|----------------------|
|---------------------|----------------------|
|---------------------|----------------------|
|--1------------------|-(1)------------------|


   e e  e e  e e  e e    e  e  e e  e e  e E
|---------------------|----------------------|
|---------------------|----------------------|
|---------------------|----------------------|
|-10---10---10---10---|-10----10---10---10---|
|--3----3----3----3---|--3-----3----3----3---|
|---------------------|----------------------|
|
|  E E  E E  E E  E E    E  E  E E  E E  E E
|---------------------|----------------------|
|---------------------|----------------------|
|---------------------|----------------------|
|---------------------|----------------------|
|---------------------|--3-----3----3----3---|
|--2----2----2----2-6-|--------------------6-|
|
|  W                    +W
|---------------------|----------------------|
|---------------------|----------------------|
|---------------------|----------------------|
|---------------------|----------------------|
|---------------------|----------------------|
|--0------------------|-(0)------------------|


   e e  e e  e e  e e    e  e  e e  e e  e e
|---------------------|----------------------|
|---------------------|----------------------|
|---------------------|----------------------|
|-10---10---10---10---|-10----10---10---10---|
|--3----3----3----3---|--3-----3----3----3---|
|---------------------|----------------------|
|
|  E E  E E  E E  E E    E  E  E E  E E  E E
|---------------------|----------------------|
|---------------------|----------------------|
|---------------------|----------------------|
|---------------------|----------------------|
|---------------------|--3-----3----3----3---|
|--3----3----3----3-6-|--------------------6-|
|
|  W                    +W
|---------------------|----------------------|
|---------------------|----------------------|
|---------------------|----------------------|
|---------------------|----------------------|
|---------------------|----------------------|
|--1------------------|-(1)------------------|


   e e  e e  e e  e e    e  e  e e  e e  e E
|---------------------|----------------------|
|---------------------|----------------------|
|---------------------|----------------------|
|-10---10---10---10---|-10----10---10---10---|
|--3----3----3----3---|--3-----3----3----3---|
|---------------------|----------------------|
|
|  E E  E E  E E  E E    E  E  E E  E E  E E
|---------------------|----------------------|
|---------------------|----------------------|
|---------------------|----------------------|
|---------------------|--------------------3-|
|---------------------|--3-----3-3--3-4--6---|
|--2----2----2----2-6-|----------------------|
|
|  W                    +W
|---------------------|----------------------|
|---------------------|----------------------|
|---------------------|----------------------|
|---------------------|----------------------|
|---------------------|----------------------|
|--0------------------|-(0)------------------|


  Gtr I
   e  e  e e  e e  e e    e  e  e e  e e  e e
|----------------------|----------------------|
|----------------------|----------------------|
|----------------------|----------------------|
|-10----10---10---10---|-10----10---10---10---|
|--3-----3----3----3---|--3-----3----3----3---|
|----------------------|----------------------|
|
| Gtr IV
|  ~~~                    ~~~
|  H.              E E    H.              E E
|----------------------|----------------------|
|----------------------|----------------------|
|----------------------|----------------------|
|----------------------|----------------------|
|----------------------|--3---------------3---|
|--3---------------3-6-|--------------------6-|
|
| Gtr V
|  W                     +W
|----------------------|----------------------|
|----------------------|----------------------|
|----------------------|----------------------|
|----------------------|----------------------|
|----------------------|----------------------|
|--1-------------------|-(1)------------------|


   e  e  e e  e e  e e    e  e  e e  e e  e E
|----------------------|----------------------|
|----------------------|----------------------|
|----------------------|----------------------|
|-10----10---10---10---|-10----10---10---10---|
|--3-----3----3----3---|--3-----3----3----3---|
|----------------------|----------------------|
|
|  ~~~                    ~~~
|  H.              E E    H.              E E
|----------------------|----------------------|
|----------------------|----------------------|
|----------------------|----------------------|
|----------------------|----------------------|
|----------------------|--3---------------3---|
|--2---------------2-6-|--------------------6-|
|
|  W                     +W
|----------------------|----------------------|
|----------------------|----------------------|
|----------------------|----------------------|
|----------------------|----------------------|
|----------------------|----------------------|
|--0-------------------|-(0)------------------|


   e  e  e e  e e  e e    e  e  e e  e e  e e
|----------------------|----------------------|
|----------------------|----------------------|
|----------------------|----------------------|
|-10----10---10---10---|-10----10---10---10---|
|--3-----3----3----3---|--3-----3----3----3---|
|----------------------|----------------------|
|
|  ~~~                    ~~~
|  H.              E E    H.              E E
|----------------------|----------------------|
|----------------------|----------------------|
|----------------------|----------------------|
|----------------------|----------------------|
|----------------------|--3---------------3---|
|--3---------------3-6-|--------------------6-|
|
|  W                     +W
|----------------------|----------------------|
|----------------------|----------------------|
|----------------------|----------------------|
|----------------------|----------------------|
|----------------------|----------------------|
|--1-------------------|-(1)------------------|


   e  e  e e  e e  e e    e  e  e e  e  e  e e
|----------------------|-----------------------|
|----------------------|-----------------------|
|----------------------|-----------------------|
|-10----10---10---10---|-10----10---10----10---|
|--3-----3----3----3---|--3-----3----3-----3---|
|----------------------|-----------------------|
|
|                                         Gtr III
|  ~~~                    ~~~
|  H.              E E    H          H
|----------------------|-----------------------|
|----------------------|-----------------------|
|----------------------|-----------------------|
|----------------------|-----------------------|
|----------------------|--3----------7\--------|
|--2---------------2-6-|-------------7\--------|
|
|  W                     +W
|----------------------|-----------------------|
|----------------------|-----------------------|
|----------------------|-----------------------|
|----------------------|-----------------------|
|----------------------|-----------------------|
|--0-------------------|-(0)-------------------|


   Pre-Verse
     e   e    e   e    e   e  e e    e   e    e   e    e   e  e E
||--------------------------------|-------------------------------|
||o-------------------------------|-------------------------------|
||--------------------------------|-------------------------------|
||--10-------10-------10-----10---|-10-------10-------10-----10---|
||o--3--------3--------3------3---|--3--------3--------3------3---|
||--------------------------------|-------------------------------|
|
|    S S S S  S S S S  S S E  Q      S S S S  S S S S  S S E  Q
||--------------------------------|-------------------------------|
||o-------------------------------|-------------------------------|
||--------------------------------|-------------------------------|
||--------------------------------|-------------------------------|
||o--3-3-3-3--3-3-3-3--3----------|--3-3-3-3--3-3-3-3--3----------|
||---3-3-3-3--3-3-3-3--3----------|--3-3-3-3--3-3-3-3--3----------|


  e   e   e   e   e   e e e   e   e   e   e   e   e e E
|---------------------------|-----------------------------||
|---------------------------|----------------------------o||
|---------------------------|-----------------------------||
|-9-------9-------9-----9---|-9-------9-------9-----9-----||
|-2-------2-------2-----2---|-2-------2-------2-----2----o||
|---------------------------|-----------------------------||
|
| S S S S S S S S S S E Q     S S S S S S S S S S E Q
|---------------------------|-----------------------------||
|---------------------------|----------------------------o||
|---------------------------|-----------------------------||
|---------------------------|-----------------------------||
|-2-2-2-2-2-2-2-2-2---------|-2-2-2-2-2-2-2-2-2----------o||
|-2-2-2-2-2-2-2-2-2---------|-2-2-2-2-2-2-2-2-2-----------||


   Verses throughout
     W                           +W
||----------------------------|-----------------------------|
||o---------------------------|-----------------------------|
||----------------------------|-----------------------------|
||--10------------------------|-(10)------------------------|
||o--3------------------------|--(3)------------------------|
||----------------------------|-----------------------------|
|
|    S S S S S S S S S S E Q      S  S S S S S S S S S E Q
||----------------------------|-----------------------------|
||o---------------------------|-----------------------------|
||----------------------------|-----------------------------|
||----------------------------|-----------------------------|
||o--3-3-3-3-3-3-3-3-3--------|---3--3-3-3-3-3-3-3-3--------|
||---3-3-3-3-3-3-3-3-3--------|---3--3-3-3-3-3-3-3-3--------|


  W                          +W                           4x
|--------------------------|------------------------------||
|--------------------------|-----------------------------o||
|--------------------------|------------------------------||
|-9------------------------|-(9)--------------------------||
|-2------------------------|-(2)-------------------------o||
|--------------------------|------------------------------||
|
| S S S S S S S S S S E Q     S  S S S S S S S S S E Q    4x
|--------------------------|------------------------------||
|--------------------------|-----------------------------o||
|--------------------------|------------------------------||
|--------------------------|------------------------------||
|-2-2-2-2-2-2-2-2-2--------|--2--2-2-2-2-2-2-2-2---------o||
|-2-2-2-2-2-2-2-2-2--------|--2--2-2-2-2-2-2-2-2----------||


  Q=216
  Gtr III
  E E E E E E Q    E E E E E E Q    E E E E E E Q    E E E E E E Q
|----------------|----------------|----------------|----------------|
|----------------|----------------|----------------|----------------|
|----------------|----------------|----------------|----------------|
|----------------|----------------|----------------|-------------4--|
|-----2-----5-4--|-----2-----5-4--|-----2-----5-4--|-----2-----5----|
|-0-0-2-0-0------|-0-0-2-0-0------|-0-0-2-0-0------|-0-0-2-0-0------|
|
| Gtr VI
| E E Q   H        W                W                W
|----------------|----------------|----------------|----------------|
|----------------|----------------|----------------|----------------|
|----------------|----------------|----------------|----------------|
|----------------|----------------|----------------|----------------|
|-0--------------|----------------|----------------|----------------|
|-0--------------|----------------|----------------|----------------|


    Gtr III
    E E E E E E Q    E E E E E E Q   4x
||-----------------|-----------------||
||o----------------|----------------o||
||-----------------|-----------------||
||-----------------|-----------------||
||o-----2-----5-4--|-----2-----5-4--o||
||--0-0-2-0-0------|-0-0-2-0-0-------||


  E E H.        E E H.        E E H.        E E H.
|-------------|-------------|-------------|-----------|
|-------------|-------------|-------------|-----------|
|-------------|-------------|-------------|-----------|
|-------------|-------------|-------------|-----------|
|-0-0-0-------|-0-0-0-------|-0-0-0-------|-0-0-0-----|
|-0-0-0-------|-0-0-0-------|-0-0-0-------|-0-0-0-----|


    E E E E E E Q    E E E E E E Q   4x
||-----------------|-----------------||
||o----------------|----------------o||
||-----------------|-----------------||
||-----------------|-----------------||
||o-----2-----5-4--|-----2-----5-4--o||
||--0-0-2-0-0------|-0-0-2-0-0-------||


   Q  Q  Q  Q     Q  Q   Q  Q
|--------------|---------------|
|--------------|---------------|
|--------------|---------------|
|--------------|--------/3--2--|
|--------1--0--|-/4--3---------|
|-/3--2--------|---------------|


  Gtr III
   Q  Q  Q  Q    Q  Q   Q  Q
|--------------|--------------|
|--------------|--------------|
|--------------|--------------|
|--------------|-------/3--2--|
|--------1--0--|-4--3---------|
|-/3--2--------|--------------|
|
| Gtr VI
|  Q  Q  Q  Q    Q  Q   Q  Q
|--------------|--------------|
|--------------|-2--1--/6--5--|
|--------3--2--|--------------|
|-/3--2--------|--------------|
|--------------|--------------|
|--------------|--------------|


  TP   TP     TP   TP     TP   TP     TP   TP
  H    H      H    H      H    H      H    H
|-----------|-----------|-----------|-----------|
|-----------|-----------|-----------|-----------|
|-4----6----|-4----6----|-4----6----|-4----6----|
|-----------|-----------|-----------|-----------|
|-----------|-----------|-----------|-----------|
|-----------|-----------|-----------|-----------|


  TP   TP     TP   TP     TP   TP     TP   TP
  H    H      H    H      H    H      H    H
|-----------|-----------|-----------|-----------|
|-3----4----|-5----4----|-3----4----|-5----4----|
|-----------|-----------|-----------|-----------|
|-----------|-----------|-----------|-----------|
|-----------|-----------|-----------|-----------|
|-----------|-----------|-----------|-----------|


  TP   TP   TP  TP   TP   TP  TP   TP   TP  TP   TP
  H    Q.   E   H    Q.   E   H    Q.   E   H    Q.   E
|-------------|-------------|-------------|-------------|
|-------------|-------------|-------------|-------------|
|-4----6------|-4----6------|-4----6------|-4----6------|
|-------------|-------------|-------------|-------------|
|-------------|-------------|-------------|-------------|
|-------------|-------------|-------------|-------------|


  TP TP TP TP   TP TP TP TP   TP TP TP TP   TP TP TP TP
  Q  Q  Q  Q    Q  Q  Q  Q    Q  Q  Q  Q    Q  Q  Q  Q
|-------------|-------------|-------------|-------------|
|-3--4--5--4--|-3--4--5--4--|-3--4--5--4--|-3--4--5--4--|
|-------------|-------------|-------------|-------------|
|-------------|-------------|-------------|-------------|
|-------------|-------------|-------------|-------------|
|-------------|-------------|-------------|-------------|


  E E Q  Q  E E   Q  Q  Q  E E   Q  Q  E E Q    Q  Q  Q  E E
|---------------|--------------|--------------|--------------|
|---------------|--------------|--------------|--------------|
|---------------|--------------|--------------|--------------|
|---------------|--------------|--------------|--------------|
|-0-0-4--3--0-0-|-4--3--4--0-0-|-4--3--0-0-4--|-3--4--3--0-0-|
|-0-0-------0-0-|----------0-0-|-------0-0----|----------0-0-|


  Q  E E Q  Q    Q  Q  E E Q    Q  Q  Q  E E
|--------------|--------------|-----------------|
|--------------|--------------|-----------------|
|--------------|--------------|-----------------|
|--------------|--------------|-----------------|
|-4--0-0-4--3--|-4--3--0-0-4--|-3--4--3--0-0----|
|----0-0-------|-------0-0----|----------0-0----|


  Q  Q  E E Q    Q  Q  E E Q    Q  E E Q  Q
|--------------|--------------|--------------|
|--------------|--------------|--------------|
|--------------|--------------|--------------|
|--------------|--------------|--------------|
|-4--3--0-0-4--|-3--4--0-0-4--|-3--0-0-4--3--|
|-------0-0----|-------0-0----|----0-0-------|


  Q  Q  E E Q    E E Q  Q  Q    Q  E E Q  Q
|--------------|--------------|---------------|
|--------------|--------------|---------------|
|--------------|--------------|---------------|
|--------------|--------------|---------------|
|-4--3--0-0-4--|-0-0-4--3--4--|-3--0-0-4--3---|
|-------0-0----|-0-0----------|----0-0--------|


                               H.=H                              Q=125
                                                          3/4
  Q  Q  E E Q    Q  Q  Q  Q    Q  Q  Q  Q    Q  Q  Q  Q    Q  Q  Q
|--------------|-------------|-------------|-------------|------------|
|--------------|-------------|-------------|-------------|------------|
|--------------|-------------|-------------|-------------|------------|
|--------------|-------------|-------------|-------------|------------|
|-4--3--0-0-4--|-3--4--3--4--|-3--4--3--4--|-3--4--3--4--|-3--4--3\---|
|-------0-0----|-------------|-------------|-------------|------------|


    Q=154
   4/4
    E E E E Q  E E   E Q.   H      E E E E Q  E E   E Q.   Q  Q   4x
||-----------------|-------------|----------------|---------------||
||o----------------|-------------|----------------|--------------o||
||-----------------|-------------|----------------|---------------||
||-----------------|-------------|----------------|---------------||
||o-0-0-0-0-2--0-0-|-0-5----4----|-0-0-0-0-2--0-0-|-0-5----4--5--o||
||--0-0-0-0-2--0-0-|-0-----------|-0-0-0-0-2--0-0-|-0-------------||


    Q=216
    E E E E E E Q    E E E E E E Q   4x
||-----------------|-----------------||
||o----------------|----------------o||
||-----------------|-----------------||
||-----------------|-----------------||
||o-----2-----5-4--|-----2-----5-4--o||
||--0-0-2-0-0------|-0-0-2-0-0-------||


    E E E E E E Q    E E E E E E Q
||-----------------|-----------------||
||o----------------|----------------o||
||-----------------|-----------------||
||--------------4--|-------------4---||
||o-----2-----5----|-----2-----5----o||
||--0-0-2-0-0------|-0-0-2-0-0-------||


    E E E E E E Q    E E E E E E Q
||-----------------|-----------------||
||o----------------|----------------o||
||-----------------|-----------------||
||-----------------|-----------------||
||o-----2-----5-4--|-----2-----5-4--o||
||--0-0-2-0-0------|-0-0-2-0-0-------||


  W          W          H    H      W
|----------|----------|-----------|------|
|----------|----------|-----------|------|
|----------|----------|-----------|------|
|----------|----------|-----------|------|
|-3--------|-2--------|-3----2----|-0----|
|-3--------|-2--------|-3----2----|-0----|


  +W           +W
|------------|--------|
|------------|--------|
|------------|--------|
|------------|--------|
|-(0)--------|-(0)----|
|-(0)--------|-(0)----|


   Interlude
    Q=90
    Gtr II
    E E E E E E E E   E E E E E E E E
||------------------|------------------||
||o-----------------|-----------------o||
||------5-------5---|-----5-------5----||
||----6---6---6---6-|---6---6---6---6--||
||o-8-------8-------|-7-------7-------o||
||------------------|------------------||


  E  E E E E E E E   E  E E E E E E E   E  E E E E E E E   E  E E E E E E E
|------------------|------------------|------------------|------------------|
|------------------|------------------|------------------|------------------|
|------5-------5---|------5-------5---|------5-------5---|------5-------5---|
|----6---6---6---6-|----6---6---6---6-|----6---6---6---6-|----6---6---6---6-|
|-8--------8-------|-7--------7-------|-8--------8-------|-7--------7-------|
|------------------|------------------|------------------|------------------|
|
| Gtr V
| Q.     E H         Q.     E H         Q.     E H         Q.     E H
|------------------|------------------|------------------|------------------|
|------------------|------------------|------------------|------------------|
|------------------|------------------|------------------|------------------|
|------------------|------------------|------------------|------------------|
|----------3-------|----------3-------|----------3-------|----------3-------|
|-1------4---------|-0------4---------|-1------4---------|-0------4---------|


    E  E E  E  E E E E   E  E E  E  E E E E
||---------------------|---------------------||
||o--------------------|--------------------o||
||-------5---------5---|------5---------5----||
||-----6----6----6---6-|----6----6----6---6--||
||o-8----------8-------|-7----------7-------o||
||---------------------|---------------------||
|
|   Q.      E  H         Q.      E  H
||---------------------|---------------------||
||o--------------------|--------------------o||
||---------------------|---------------------||
||------------10-------|-----------10--------||
||o-8------11----------|-7------11----------o||
||---------------------|---------------------||


    E  E E E E E E E   E  E E E E E E E
||-------------------|-------------------||
||o------------------|------------------o||
||-------5-------5---|------5-------5----||
||-----6---6---6---6-|----6---6---6---6--||
||o-8--------8-------|-7--------7-------o||
||-------------------|-------------------||
|
|   Q.     E H         Q.     E H
||-----------8-------|----------8--------||
||o-6------9---------|-5------9---------o||
||-------------------|-------------------||
||-------------------|-------------------||
||o------------------|------------------o||
||-------------------|-------------------||


    W           +W
|------------|---------|
|------------|---------|
|-^-5--------|--(5)----|
|-^-6--------|--(6)----|
|-^-8--------|--(8)----|
|------------|---------|
|
|   W           +W
|------------|---------|
|------------|---------|
|-^17--------|-(17)----|
|-^18--------|-(18)----|
|-^20--------|-(20)----|
|------------|---------|


  Wx4
|--------|
|--------|
|--------|
|--------|
|--------|
|--------|


   Outro
    Gtr III
     TP          TP
     W           W     4x
||------------|--------||
||o-----------|-------o||
||------------|--------||
||------------|--------||
||o-----------|-------o||
||--15--------|-14-----||


   Q   Q  H      W
|--------------|------|
|--------------|------|
|--------------|------|
|--------------|------|
|-15\----------|------|
|-15\----------|------|


Duration Legend
---------------
W - whole; H - half; Q - quarter; E - 8th; S - 16th; T - 32nd; X - 64th; a - acciaccatura
+ - note tied to previous; . - note dotted; .. - note double dotted
Uncapitalized letters represent notes that are staccato (1/2 duration)
Irregular groupings are notated above the duration line
Duration letters will always appear directly above the note/fret number it represents the
duration for.  Duration letters with no fret number below them represent rests.  Multi-
bar rests are notated in the form Wxn, where n is the number of bars to rest for.  Low
melody durations appear below the staff

Tablature Legend
----------------
 h   - hammer-on
 p   - pull-off
 b   - bend
 pb  - pre-bend
 r   - bend release (if no number after the r, then release immediately)
 /\  - slide into or out of (from/to "nowhere")
 s   - legato slide
 S   - shift slide
  - natural harmonic
[n]  - artificial harmonic
n(n) - tapped harmonic
 ~   - vibrato
 tr  - trill
 T   - tap
 TP  - trem. picking
 PM  - palm muting
\n/  - tremolo bar dip; n = amount to dip
 \n  - tremolo bar down
 n/  - tremolo bar up
/n\  - tremolo bar inverted dip
 =   - hold bend; also acts as connecting device for hammers/pulls
 <>  - volume swell (louder/softer)
 x   - on rhythm slash represents muted slash
 o   - on rhythm slash represents single note slash

Misc Legend
-----------
 |  - bar
||  - double bar
||o - repeat start
o|| - repeat end
*|  - double bar (ending)
 :  - bar (freetime)
 $  - Segno
 &  - Coda
Tempo markers -  = BPM(8/16=s8/s16), where s8 = swing 8ths, s16 = swing 16ths





Comments


Popular Dance Club Massacre tabs & chords
Hoosh Hoosh Tabs
Hoosh Hoosh Intro Tabs
Murder Comes With Smiles Tabs
Murder Comes With Smiles 1 Tabs
Murders Come With Smiles 1 Tabs
Murders Come With Smiles Intro Tabs
Murders Come With Smiles Intro 1 Tabs


Song lyrics



↑ Back to top | Tablatures and chords are parodies/interpretations of the original songs. You may use it for private study, scholarship, research or language learning purposes only
© 2014 AZChords.com Contact us | Privacy policy | DMCA | Add/correct tabs | Request tabs | Top 50 tabs