» » »

Damn Yankees, High Enough Tabs (ver.2)

Artists:  A B C D E F G H I J K L M N O P Q R S T U V W X Y Z # 

High Enough Tabs (ver.2)

Damn Yankees Tabs
Rating:
3/5 (3 votes)
High Enough lessons Tabs too difficult? Try these video lessons and learn fast
                "HIGH ENOUGH"
DAMN YANKEES

tabbd by Will K. 

____________________

b( ) - bend to note
/    - slide
~    - vibrato
h    - hammer on
p    - pull off
____________________


Chords used for verse:

     AMj     Gbm     EMj     Dsus
e|---5---|---2---|---0---|---0---|
B|---5---|---2---|---0---|---3---|
G|---6---|---2---|---1---|---2---|
D|---7---|---4---|---2---|---0---|
A|---7---|---4---|---2---|---0---|
E|---5---|---2---|---0---|---x---|

verse 1>
acoustic clean.
  
  AMj
I don't wanna hear about it anymore
  Gbm
It's a shame I've got to live without you anymore
  EMj
There's a fire in my heart
  EMj
A pounding in my brain
  Dsus
It's driving me crazy

  
  AMj
We don't need to talk about it anymore
  Gbm
Yesterday's just a memory, can we close the door
  EMj
I just made one mistake
  EMj
I didn't know what to say
  Dsus  
When you called me baby



pre chorus> 

electric w/ dist. 
                                              
      D5-------------------|    E5-| F5-|        
e|------------------------------------------------------|
B|------------------------------------------------------|
G|-----7--7--7--7--7--7--7--7----9----10----------------|
D|-----7--7--7--7--7--7--7--7----9----10----------------|
A|-----5--5--5--5--5--5--5--5----7----8-----------------|
E|------------------------------------------------------|
       |-----------------|       |-----|    
        palm muted                hold notes
   
   
       don't             say you're   stay      oo..
       say    goodnight  gonna        forever   oo..    all the way...
e|-----------------------------------------------------------------------|
B|-----------------------------------------------------------------------|
G|-----------------------------------------------------------------------|
D|------3--------5---------3---------7---------3---------5---------7-----|
A|------3--------5---------3---------7---------3---------5---------7-----|
E|------1--------3---------1---------5---------1---------3---------5-----|
CHORDS  F5       G5        F5        A5        F5        G5        A5



chorus> 

electric w/dist.
      can you                       to fly me    
      take     me    high enough    over       fly me over   yesterday   
e|-----------------------------------------------------------------------|
B|-----------------------------------------------------------------------|
G|-----/7----------------------------------------------------------------|
D|-----/7-------7-------9---------/3-------------5-------------7---------|
A|-----/5-------7-------9---------/3-------------5-------------7---------|
E|--------------5-------7---------/1-------------3-------------5---------|
CHORDS  D5      A5      B5         F5            G5            A5

repeat chorus x2 w/ chords. (different words)


verse 2>
same chords as verse 1>

prechorus>
chorus> 

bridge chords>

DMj       AMj             BMj
I was running for the door
DMj       AMj             BMj
The next thing I remember
DMj       AMj             BMj
I was running back for more
DMj      Amj
yeah  yeah


guitar solo>

with wah wah

e|-------------------------------------------------------------------|
B|------------------------17--14h17p14-------------------------------|
G|---16b(18)~r-p14--16~----------------16-13h16--13------------------|
D|--------------------------------------------------14-16p14----14~--|
A|-----------------------------------------------------------16------|
E|-------------------------------------------------------------------|


e|-------------------------------------------------------------------|
B|-----------------------------------17~-17----15--------------------|
G|---11b(12)~~9-11b(12)-11b(12)-9/----------16----16--14-12--14b(16)-|
D|-------------------------------------------------------------------|
A|-----(half  bends  ^^)---------------------------------------------|
E|-------------------------------------------------------------------|

^^ this is the solo for the version of "high enough" i have, i was
listening to the radio the other day when i heard a longer version,
so idk but i think this is the album version.


repeat prechorus/chorus 4x and you're good.


please rate/comments welcome- Will K.
AIM- NEPATSMVP54TB
            
Submit corrections

comments powered by Disqus
↑ Back to top | Damn Yankees Tabs for High Enough. Lyrics for acoustic guitar and electric guitar. Tablatures and chords are parodies/interpretations of the original songs. You may use it for private study, scholarship, research or language learning purposes only