>
 >
Smash It Up Part 1

Smash It Up Part 1 Guitar Tabs

Damned - Smash It Up Part 1 chords, tabs, tablatures, lyrics

Guitar lessons | Add/correct | Request | Top 50 tabs Artists:  A B C D E F G H I J K L M N O P Q R S T U V W X Y Z 0-9

Smash It Up Part 1 Guitar Tabs – Damned

CD, Sheet music, Poster

Do you like Smash It Up Part 1? Share with your friends now
TabsTabs v2Tabs v3
'Smash it Up (Part 1)' by The Damned
		    -------------------------------------


The guitar is tuned as follows: E A D G B E (from low to high)

Section A (Play twice) [CD time 00:00]
--------------------------------------
  A11   ~	    A11     D11 ~     A11   ~	   	A11     D11 ~
E-(Bass-joins-on-the-second-time)---|-----------------|-----------------|
B-----------------|-----------------|-----------------|-----------------|
G-------0---------|-------------0---|-------0---------|-------------0---|
D-----0------0----|-----0-----4---4-|-----0------0----|-----0-----4---4-|
A---4------4---4--|---4---4-5-------|---4------4---4--|---4---4-5-------|
E-5---------------|-5---------------|-5---------------|-5---------------|

Section B [CD time 00:14]
-------------------------
 A11    ~	   A11    ~	      A11   ~		F9(no 3rd)  ~
E-----------------|-----------------|-----------------|-----------------|
B-----------------|-----------------|-----------------|-----------------|
G-------0---------|-------0---------|-------0---------|-------------0---|
D-----0------0----|-----0-------0---|-----0--------0--|---------3-------|
A---4------4---4--|---4-------4---4-|---4--------4----|-----3-----------|
E-5---------------|-5---------------|-5---------------|-1---------------|

E-----------------|-----------------|-------0---------|
B----0---1---3----|-0---1----0---1--|-3----3---(3)----|
G-----0---0---0---|--0---0----0-----|---0---------(0)-|
D-----------------|-----------------|-----------------|
A-Let all notes ring in these 3 bars|-----------------|
E-----------------|-----------------|-----------------|

Section C [CD time 00:28]
-------------------------
  A11   ~	     A11    D11 ~	A11 ~	   	A11	D11 ~
E-----------------|-----------------|-----------------|-----------------|
B-----------------|-----------------|-----------------|-----------------|
G-------0---------|-------------0---|-------0---------|-------------0---|
D-----0------0----|-----0-----4---4-|-----0-------0---|-----0-----4---4-|
A---4------4---4--|---4---4-5-------|---4-------4---4-|---4---4-5-------|
E-5---------------|-5---------------|-5---------------|-5---------------|

  A11   ~	     A11  ~		A11 ~	   	F9(no 3rd)  ~
E-----------------|-----------------|-----------------|-----------------|
B-----------------|-----------------|-----------------|-----------------|
G-------0---------|-------0---------|-------0---------|-------------0---|
D-----0------0----|-----0------0----|-----0-------0---|---------3-------|
A---4------4---4--|---4------4---4--|---4-------4-----|-----3-----------|
E-5---------------|-5---------------|-5---------------|-1---------------|

E-----------------|-----------------|----------0------|
B-----0---1---3---|-0---1----0---1--|---3----3--------|
G------0---0---0--|--0---0----0-----|-----0-----------|
D-----------------|-----------------|-----------------|
A-Let all notes ring in these 3 bars|-----------------|
E-----------------|-----------------|-----------------|

Section D [CD time 00:49]
-------------------------
(Use an alternating strumming pattern for the first 9 bars)
  D5		    D9(no 3rd)	      D5		D9(no 3rd)
     ^		    ^   	        ^                 ^
E(0)-5-0--0-0-0-0-|-0--0--0-0-0-0---|-0-5--0--0-0-0-0-|-0-0--0--0-0-0---|
B(0)-3-0--0-0-0-0-|-3--0--0-0-0-0---|-0-3--0--0-0-0-0-|-0-3--0--0-0-0---|
G-----------------|-----------------|-----------------|-----------------|
D-----------------|-----------------|-----------------|-----------------|
A-----------------|-----------------|-----------------|-----------------|
E-----------------|-----------------|-----------------|-----------------|

  D5		    C		      C			C
     ^
E(0)-5--0---0-----|-0--0--0--0--0-0-|-0--0--0--0--0-0-|-0-0-----0--0-0--|
B(0)-3--0---0-----|-1--1--1--1--1-1-|-1--1--1--1--1-1-|-0-1-----1--1-1--|
G-----------------|-0--0--0--0--0-0-|-0--0--0--0--0-0-|-----0---0--0-0--|
D-----------------|-2--2--2--2--2-2-|-2--2--2--2--2-2-|---------2--2-2--|
A-----------------|-3------ --------|-----------------|-----------------|
E-----------------|-(There is a flanger sweep over the bars using Cmaj)-|

  C 	    	    D11	    ~    ~  A11      ~    ~    A11	G
E-0--0-0--0-00----|-----------------|-----------------|-----------------|
B-1--1-1--1-11----|---------0-------|-----------------|-----------------|
G-0--0-0--0-00----|-------0------0--|--------0--------|-----------------|
D-2--2-2--2-22----|-----4------4----|-----0-------0---|-----0-------0---|
A----------------(3/5)5-------------|---4-------4-----|---4---4---2---2-|
E-----------------|-----------------|-5---------------|-5-------3-------|

Section E [CD time 01:10]
-------------------------

  Em		    Em9	      	      Em7		Em6
E-0---------------|-2---------------|-0---------------|-0---------------|
B-0---------------|-0---------------|-3---------------|-2---------------|
G-0---------------|-0---------------|-0---------------|-0---------------|
D-2---------------|-2---------------|-2---------------|-2---------------|
A-2---------------|-2---------------|-2---------------|-2---------------|
E-rake all chords-|-----------------|-----------------|-----------------|

  C	~	    D11   ~	      C     ~		D11   ~  w/fingers
E-----------------|-----------------|-----------------|-----------------|
B-------1------1--|-------3------3--|-------1------1--|-------3-----3-3-|
G-----0------0--0-|-----0------0--0-|-----0------0--0-|-----0-------0-0-|
D---2-------------|---4-------------|---2-------------|---4-------------|
A-3---------------|-5---------------|-3---------------|-5---------------|
E-----------------|-----------------|-----------------|-----------------|

Em		    Em9	      	      Em7		Em6
E-0---------------|-2---------------|-0---------------|-0---------------|
B-0---------------|-0---------------|-3---------------|-2---------------|
G-0---------------|-0---------------|-0---------------|-0---------------|
D-2---------------|-2---------------|-2---------------|-2---------------|
A-2---------------|-2---------------|-2---------------|-2---------------|
E-rake all chords-|-----------------|-----------------|-----------------|

Section F [CD time 01:30]
-------------------------
(Use an alternating strumming pattern throughout)
  Em		    Em		^ ^   G		       	D rake	Dsus2 XX
E0----------------|-----------------|-0--3--3--3-3-3-3|-0-2--2-2--0-0-00|
B0-0--0-0-0-0-0-0-|-0-0--0-0----0-0-|-0--3--3--3-3-3-3|-0-3--3-3--3-3-00|
G0-0--0-0-0-0-0-0-|-0-0--0-0----0-0-|-0--0--0--0-0-0-0|-0-2--2-2--2-2-00|
D--2--2-2-2-2-2-2-|-2-2--2-2----2-2-|----0--0--0-0-0-0|---0--0-0------00|
A--2--2-2-2-2-2-2-|-2-2--2-2--------|----2------------|-----------------|
E-----------------|-----------------|----3------------|-----------------|

  Em (rake)	    Em
E-0---------------|-----------------|
B-0---------------|-------------0-0-|
G-0---------------|-------------0-0-|
D-2---------------|-------------2-2-|
A-2---------------|-------------2-2-|
E-----------------|-----------------|

  G rake	    D	    Dsus2 XX  Em (rake)		Em
E-0--3--3--3-3--3-|-0-2--2-2--0-0-00|-0---------------|-----------------|
B-0--3--3--3-3--3-|-0-3--3-3--3-3-00|-0---------------|-------------0-0-|
G-0--0--0--0-0--0-|-0-2--2-2--2-2-00|-0---------------|-------------0-0-|
D----0--0--0-0--0-|---0--0-0--------|-2---------------|-------------2-2-|
A----2------------|-----------------|-2---------------|-------------2-2-|
E----3------------|-----------------|-----------------|-----------------|

 G  rake	    D	    Dsus2 XX  Em (rake)
E-0--3--3--3-3-333|-0-2--2-2--0-0-00|-0---------------|-----------------|
B-0--3--3--3-3-333|-0-3--3-3--3-3-00|-0---------------|-----------------|
G-0--0--0--0-0-000|-0-2--2-2--2-2-00|-0---------------|--..... to-------|
D----0--0--0-0-000|---0--0-0--------|-2---------------|---Smash It Up---|
A----2------------|-----------------|-2---------------|-----(Part 2)----|
E----3------------|-----------------|-----------------|-----------------|

TAB Key
--------

	X  - mute with palm of hand
	~  - hold note
	/  - slide up
	() - incidental note
	^  - emphasise note
        rake - exagerate the strumming of the chord
	      (but not enough for it to be an arpeggio)

Notes
------

As this part of the song is an instrumental its difficult to keep
track of where you are in the TAB. To make things easier, the TAB
is broken into sections and the CD times included where they occur.

Most of 'Smash It Up (Part 1)' uses arpeggiated chord shapes. Some
of the shapes used are normal, first position chords - others are
common chord shapes which are moved 'out of position'. The song is
in 4/4 time.

If you look at some of the chord names above the TAB stave - things
seem a little 'jazzy' with all those 9th and 11th chords lying about.
The piece isn't complicated - the expensive sounding chord names come
about as a result of moving simple chord shapes up the neck. If you
view the TAB, looking for out of position chord shapes then the whole
thing is alot easier to learn ....

Section A uses A11 and D11 chords. These are just common G and Cmaj7
shapes, moved up the neck by 2 frets.

Section B uses the same shapes as in section A, along with F9(no 3rd)
- which is a variant of Fminor at the first fret.

Section C uses the same shapes as in section B.

Section D uses diads based on D5 and D9, along with Cmajor and the
shapes used in in section A. Check with the record/CD to get the
emphasis on picking right for the 4-bars of Cmajor

Section E uses Em6, Em7 and Em9 chords. These chords are all formed
C and D11 chords. The D11 chord is formed by taking the standard C
shape and moving it up 2 frets.

Section F  uses standard G, Eminor, D and Dsus2 chord shapes. These
chords are played loosely, with open strings being sounded between
some of the chord changes.

The guitar sound is 'clean' with a very small amount of delay added,
in places a slight flanging effect is also present.

This Transcription (c) Copyright DarkMusic 1995. ReVamped '96.

This Transcription (and others) is also available at:

Comments and corrections welcome.





Comments


Popular Damned tabs & chords
Love Song 1 Bass Tabs
Antipope Chords
Love Song Chords
Video Nasty Chords
Wait For The Blackout Chords
Dozen Girls Tabs
Machine Gun Etiquette Tabs
Smash It Up 1 Tabs
Wait For The Blackout Intro Tabs
Twisted Nerve Ukulele


Song lyrics



↑ Back to top | Tablatures and chords are parodies/interpretations of the original songs. You may use it for private study, scholarship, research or language learning purposes only
© 2014 AZChords.com Contact us | Privacy policy | DMCA | Add/correct tabs | Request tabs | Top 50 tabs