>
 >
Smash It Up 2

Smash It Up 2 Guitar Tabs

Damned - Smash It Up 2 chords, tabs, tablatures, lyrics

Guitar lessons | Add/correct | Request | Top 50 tabs Artists:  A B C D E F G H I J K L M N O P Q R S T U V W X Y Z 0-9

Smash It Up 2 Guitar Tabs – Damned

CD, Sheet music, Poster

Do you like Smash It Up 2? Share with your friends now
ChordsTabsTabs v2Tabs v3Ukulele
TAB Key
--------
	X  - mute with palm of hand
	~  - hold note
	/  - slide up
	() - incidental note
	^  - emphasise note
        rake - exagerate the strumming of the chord
	      (but not enough for it to be an arpeggio

		    “Smash it Up (Part 1)” by THE ***ED
		    -------------------------------------


Section A (2x) [CD time 00:00]
E-----------------|-----------------|-----------------|---------------|
B-----------------|-----------------|-----------------|---------------|
G-------0---------|-------------0---|-------0---------|------------0--|
D-----0------0----|-----0-----4---4-|----0------0-----|-----0-----4--4|
A---4------4---4--|---4---4-5-------|---4------4---4--|---4---4-5-----|
E-5---------------|-5---------------|-5---------------|-5-------------| 
(Bass-joins-on-the-second-time)


Section B [CD time 00:14]
E-----------------|-----------------|-----------------|---------------|
B-----------------|-----------------|-----------------|---------------|
G-------0---------|-------0---------|-------0---------|-------------0-|
D-----0------0----|-----0-------0---|-----0--------0--|---------3-----|
A---4------4---4--|---4-------4---4-|---4--------4----|-----3---------|
E-5---------------|-5---------------|-5---------------|-1-------------|

E-----------------|-----------------|-------0---------|
B----0---1---3----|-0---1----0---1--|-3----3---(3)----|
G-----0---0---0---|--0---0----0-----|---0---------(0)-|
D-----------------|-----------------|-----------------|
A-----------------|-----------------|-----------------|
E-----------------|-----------------|-----------------|

Section C [CD time 00:28]
E-----------------|-----------------|-----------------|---------------|
B-----------------|-----------------|-----------------|---------------|
G-------0---------|-------------0---|-------0---------|-------------0-|	
D-----0------0----|-----0-----4---4-|-----0-------0---|-----0-----4--4|
A---4------4---4--|---4---4-5-------|---4-------4---4-|---4---4-5-----|
E-5---------------|-5---------------|-5---------------|-5-------------|

E-----------------|-----------------|-----------------|---------------|
B-----------------|-----------------|-----------------|---------------|
G-------0---------|-------0---------|-------0---------|-------------0-|
D-----0------0----|-----0------0----|-----0-------0---|---------3-----|
A---4------4---4--|---4------4---4--|---4-------4-----|-----3---------|
E-5---------------|-5---------------|-5---------------|-1-------------|

Let all notes ring in these 3 bars:
E-----------------|-----------------|----------0------|
B-----0---1---3---|-0---1----0---1--|---3----3--------|
G------0---0---0--|--0---0----0-----|-----0-----------|
D-----------------|-----------------|-----------------|
A-----------------|-----------------|-----------------|
E-----------------|-----------------|-----------------|

Section D [CD time 00:49]
 (Use an alternating strumming pattern for the first 9 bars)
     ^		    ^   	        ^                 ^
E(0)-5-0--0-0-0-0-|-0--0--0-0-0-0---|-0-5--0--0-0-0-0-|-0-0--0--0-0-0-|
B(0)-3-0--0-0-0-0-|-3--0--0-0-0-0---|-0-3--0--0-0-0-0-|-0-3--0--0-0-0-|
G-----------------|-----------------|-----------------|---------------|
D-----------------|-----------------|-----------------|---------------|
A-----------------|-----------------|-----------------|---------------|
E-----------------|-----------------|-----------------|---------------|

There is a flanger sweep over the bars using Cmaj:
     ^
E-(0)-5--0---0----|-0--0--0--0--0-0-|-0--0--0--0--0-0-|-0-0-----0--0-0|
B-(0)-3--0---0----|-1--1--1--1--1-1-|-1--1--1--1--1-1-|-0-1-----1--1-1|
G-----------------|-0--0--0--0--0-0-|-0--0--0--0--0-0-|-----0---0--0-0|
D-----------------|-2--2--2--2--2-2-|-2--2--2--2--2-2-|---------2--2-2|
A-----------------|-3------ --------|-----------------|---------------|
E-----------------|-----------------|-----------------|---------------|
       
E-0--0-0--0-00----|-----------------|-----------------|---------------|
B-1--1-1--1-11----|---------0-------|-----------------|---------------|
G-0--0-0--0-00----|-------0------0--|--------0--------|---------------|
D-2--2-2--2-22----|-----4------4----|-----0-------0---|-----0-------0-|
A----------------(3/5)5-------------|---4-------4-----|---4---4---2--2|
E-----------------|-----------------|-5---------------|-5-------3-----|

Section E [CD time 01:10]
E-0---------------|-2---------------|-0---------------|-0-------------|
B-0---------------|-0---------------|-3---------------|-2-------------|
G-0---------------|-0---------------|-0---------------|-0-------------|
D-2---------------|-2---------------|-2---------------|-2-------------|
A-2---------------|-2---------------|-2---------------|-2-------------|
E-rake all chords-|-----------------|-----------------|---------------|

E-----------------|-----------------|-----------------|---------------|
B-------1------1--|-------3------3--|-------1------1--|-------3---3-3-|
G-----0------0--0-|-----0------0--0-|-----0------0--0-|-----0-----0-0-|
D---2-------------|---4-------------|---2-------------|---4-----------|
A-3---------------|-5---------------|-3---------------|-5-------------|
E-----------------|-----------------|-----------------|---------------|

E-0---------------|-2---------------|-0---------------|-0-------------|
B-0---------------|-0---------------|-3---------------|-2-------------|
G-0---------------|-0---------------|-0---------------|-0-------------|
D-2---------------|-2---------------|-2---------------|-2-------------|
A-2---------------|-2---------------|-2---------------|-2-------------|
E-rake all chords-|-----------------|-----------------|---------------|



Section F [CD time 01:30]
 (Use an alternating strumming pattern throughout)
	 ^ ^  
E-0----------------|-----------------|-0--3--3--3-3-3-3|-0-2--2-2--0-0-00|
B-0-0--0-0-0-0-0-0-|-0-0--0-0----0-0-|-0--3--3--3-3-3-3|-0-3--3-3--3-3-00|
G-0-0--0-0-0-0-0-0-|-0-0--0-0----0-0-|-0--0--0--0-0-0-0|-0-2--2-2--2-2-00|
D--2--2-2-2-2-2-2-|-2-2--2-2----2-2-|----0--0--0-0-0-0|---0--0-0------00|
A--2--2-2-2-2-2-2-|-2-2--2-2--------|----2------------|-----------------|
E-----------------|-----------------|----3------------|-----------------|




  Em (rake)	    Em
E-0---------------|-----------------|
B-0---------------|-------------0-0-|
G-0---------------|-------------0-0-|
D-2---------------|-------------2-2-|
A-2---------------|-------------2-2-|
E-----------------|-----------------|
 
  G rake	    D	   Dsus2 XX          Em (rake)		         Em
E-0--3--3--3-3--3-|-0-2--2-2--0-0-00|-0---------------|-----------------|
B-0--3--3--3-3--3-|-0-3--3-3--3-3-00|-0---------------|-------------0-0-|
G-0--0--0--0-0--0-|-0-2--2-2--2-2-00|-0---------------|-------------0-0-|
D----0--0--0-0--0-|---0--0-0--------|-2---------------|-------------2-2-|
A----2------------|-----------------|-2---------------|-------------2-2-|
E----3------------|-----------------|-----------------|-----------------|

 G  rake	    D	    Dsus2 XX  Em (rake)
E-0--3--3--3-3-333|-0-2--2-2--0-0-00|-0---------------|-----------------|
B-0--3--3--3-3-333|-0-3--3-3--3-3-00|-0---------------|-----------------|
G-0--0--0--0-0-000|-0-2--2-2--2-2-00|-0---------------|-----------------|
D----0--0--0-0-000|---0--0-0--------|-2---------------|-----------------|
A----2------------|-----------------|-2---------------|-----------------|
E----3------------|-----------------|-----------------|-----------------|





Comments


Popular Damned tabs & chords
Eloise Bass Tabs
Love Song Bass Tabs
Born To Kill Chords
Plan 9 Channel 7 Chords
Democracy Intro Tabs
Machine Gun Etiquette Tabs
Smash It Up Tabs
Smash It Up Part 1 Tabs
Melody Lee Ukulele
Twisted Nerve Ukulele


Song lyrics



↑ Back to top | Tablatures and chords are parodies/interpretations of the original songs. You may use it for private study, scholarship, research or language learning purposes only
© 2014 AZChords.com Contact us | Privacy policy | DMCA | Add/correct tabs | Request tabs | Top 50 tabs