>
 >
Rootless Tree 1

Rootless Tree 1 Guitar Tabs

Damien Rice - Rootless Tree 1 chords, tabs, tablatures, lyrics

Guitar lessons | Add/correct | Request | Top 50 tabs Artists:  A B C D E F G H I J K L M N O P Q R S T U V W X Y Z 0-9

Rootless Tree 1 Guitar Tabs – Damien Rice

CD, Sheet music, Poster

Do you like Rootless Tree 1? Share with your friends now
ChordsChords v2Chords v3TabsTabs v2Ukulele
Rootless Tree - Damien Rice

Capo on 4 (all relevant to capo)

Intro

E|--------------------------------------------------------------|
B|------------0----------3---3---------0------------------------|
G|--------0---0--------0-------0-------0----0---------0---0-----|
D|------4-------4----0-----0--------------0---0-----4-----------|
A|----2-----2------3-----------------2------------5-----5---4---|
E|--0------------------------------3------------2---------------|

E|--------------------------------------------------------------|
B|------------0----------3---3---------0------------------------|
G|--------0---0--------0-------0-------0----0---------0---0-----|
D|------4-------4----0-----0--------------0---0-----4-----------|
A|----2-----2------3-----------------2------------5-----5---4---|
E|--0------------------------------3------------2---------------|

E|--------------------------------------------------------------|
B|------------0----------3---3---------0------------------------|
G|--------0---0--------0-------0-------0----0---------0---0-----|
D|------4-------4----0-----0--------------0---0-----4-----------|
A|----2-----2------3-----------------2------------5-----5---4---|
E|--0------------------------------3------------2---------------|

E|--------------------------------------------------------------|
B|------------0----------3---3----------------------------------|
G|--------0---0--------0-------0-----------<5>--------0---0-----|
D|------4-------4----0-----0------------<5>---0-----4-----------|
A|----2-----2------3-----------------2------------5-----5---4---|
E|--0----------------------------0h3------------2---------------|

Verse
                                                                  x3
E|--------------------------------------------------------------|
B|------------0----------3---3---------0------------------------|
G|--------0---0--------0-------0-------0----0---------0---0-----|
D|------4-------4----0-----0--------------0---0-----4-----------|
A|----2-----2------3-----------------2------------5-----5---4---|
E|--0------------------------------3------------2---------------|

                                                                 x1
E|--------------0---------0-------------------------------------|
B|--------1-------1---1------1--------3----------------3--------|
G|------2---2-------2---2-----------0---0----------0-----0------|
D|----2-------2---------------------------0-----0---------------|
A|--0---------------------------0h3---------3h5-----------------|
E|--------------------------------------------------------------|

                                                                 x3
E|--------------------------------------------------------------|
B|------------0----------3---3---------0------------------------|
G|--------0---0--------0-------0-------0----0---------0---0-----|
D|------4-------4----0-----0--------------0---0-----4-----------|
A|----2-----2------3-----------------2------------5-----5---4---|
E|--0------------------------------3------------2---------------|

                                                                 x1
E|--------------0---------0-----------------------(0)-------------|
B|--------1-------1---1------1--------3------------3--3--3--3--3--|
G|------2---2-------2---2-----------0---0----------0--0--0--0--0--|
D|----2-------2---------------------------0-----0--0--0--0--0--0--|
A|--0---------------------------0h3---------3h5----5--5--5--5--5--|
E|----------------------------------------------------------------|

Chorus
                                                                x4
E|--0------0----------------------------------------------------|
B|--0------3------0------0--------------------------------------|
G|--0--x6--0--x6--0------0--------------------------------------|
D|--4------0------0--x5--4--x7----------------------------------|
A|--2------3------2------5--------------------------------------|
E|----------------3------2--------------------------------------|

Post-Chorus
                                 x7
E|----------------------------|
B|---------3---3-----3--------|
G|-----------0---0------------|
D|-----0-----------0----------|
A|---3------------------------|
E|----------------------------|

                                 x1
E|----------------------------|
B|---------3----(3)-----------|
G|-----------(0)-----0--------|
D|-----0---------------0------|
A|-----------------------0----|
E|---2------------------------|

Order

Intro
Verse
Chorus
Post-Chorus
Verse
Chorus
Post-Chorus x4
Chorus x 2
Post Chorus to end





Comments


Popular Damien Rice tabs & chords
Blowers Daughter Chords
Cheers Darlin' 1 Chords
Childish Chords
Eskimo Chords
Volcano 1 Chords
Amie 1 Tabs
Blowers Daughter Part 2 Ukulele
Que Sera Ukulele
Silent Night Ukulele
Sleep Dont Weep Ukulele


Song lyrics



↑ Back to top | Tablatures and chords are parodies/interpretations of the original songs. You may use it for private study, scholarship, research or language learning purposes only
© 2014 AZChords.com Contact us | Privacy policy | DMCA | Add/correct tabs | Request tabs | Top 50 tabs